Guitaretab - guitar tabs
Song name
# A B C D E F G H I J K L M N O P Q R S T U V W X Y Z
Home / Y / Yu Grupa / Sama tab

Yu Grupa - Sama tab

e|------------------------------------------------------------------|
B|------------------------------------------------------------------|
G|-7h9-9-9-9-----7-----------5-------------------------7p5----------|
D|-----------7h9---7-5--5h7---5-5-7---------5h7-7-7-5-----7-5-5----|
A|-----------------------------------5-7-7--------------------------|
E|------------------------------------------------------------------|

e|------------------------------------------------------------------|
B|------------------------------------------------------------------|
G|--7p5----------------------------7p5-----------7p5----------------|
D|-----7-5-7-4-----------5h7-7-7-5-----7-5-5---------7-5-7-4--------|
A|-------------5-7-7-----------------------------------------5-7-7--|
E|------------------------------------------------------------------|

e|------------------------------------------------------------------|
B|------------------------------------------------------------------|
G|-7h9-9-9-9-----7-----------5-------------------------7p5----------|
D|-----------7h9---7-5--5h7---5-5-7---------5h7-7-7-5-----7-5-5----|
A|-----------------------------------5-7-7--------------------------|
E|------------------------------------------------------------------|
[ Tab from: http://www.guitaretab.com/y/yu-grupa/69244.html ]
e|------------------------------------------------------------------|
B|------------------------------------------------------------------|
G|--7p5----------------------------7p5-----------7p5----------------|
D|-----7-5-7-4-----------5h7-7-7-5-----7-5-5---------7-5-7-4--------|
A|-------------5-7-7-----------------------------------------5-7-7--|
E|------------------------------------------------------------------|

e|------------------------------------------------------------------|
B|---------------11/8-8----------------------------------5b---------|
G|---7h9-9-9-9-7--------9--------5--------------5-7--5-7---5--2-4-5-|
D|---------------------------5h7---5-5-7----------------------------|
A|---------------------------------------5-7-7----------------------|
E|------------------------------------------------------------------|

e|------------------------------------------------------------------|
B|-------------------------------5b---------------------------------|
G|----------------------5-7--5-7---5--2-4-5-------------------------|
D|------------------------------------------------------------------|
A|--7-6-5-----------------------------------7-6-5-------------------|
E|-------7-6-5-1-3-3------------------------------7-6-5-1-3-3-------|


h-hamer on
p-pull of
b-bend
/-slide

Related for Sama tab
Sama chords by Yu Grupa