Song name
# A B C D E F G H I J K L M N O P Q R S T U V W X Y Z

Yu Seong Eun - Be Ok chords

Highlighted       Show chord diagrams
---------------------------------------------------------------------------------------------
                                     Yu Seong Eun - Be OK
                            Official MV :- http://youtu.be/goqxlLpeQ7M

---------------------------------------------------------------------------------------------
Tabbed By : xiTiz

Tuning : Standard

Note: s = slide

Chords used: 

   F5    C5    D5    Bb5   G5    
e|-x-----x-----x-----x-----x---------|
b|-6-----x-----x-----x-----x---------|
g|-5-----5-----7-----x-----x---------|
d|-3-----5-----7-----8-----5---------|
a|-x-----3-----5-----8-----5---------|
e|-x-----x-----x-----6-----3---------|


You can play the regular chords instead of the power chords.
In that case, The chords used will be "F C Dm Bb G".


**Here is my youtube cover for this song:- http://youtu.be/_M7po6tHoIE **


If there is any song you want the tab of then send me a message on my 
youtube channel or UG profile~ C=

Youtube:
http://www.youtube.com/user/xitizhnn

Ultimate-Guitar:
http://profile.ultimate-guitar.com/Xitiz+Rana/

Enjoy ^ ^ ~!! 

-------------------------------------------------------------------------------

~~~~~~
Intro:
~~~~~~

e |---1--1---1--3--5--6--6s8---8--8--8---5--5--5---5--3--5s6--6---6--5--3--5------------|
b |-------------------------------------------------------------------------------------|
g |-------------------------------------------------------------------------------------|
d |-------------------------------------------------------------------------------------|
a |-------------------------------------------------------------------------------------|
e |-------------------------------------------------------------------------------------|

~~~~~~~~~
Plucking:
~~~~~~~~~

e |--------------------------------------------------------------------------6-5------|
b |--6---6---6---6-8-----5---5---5---8-6-----6---6---6---6-5-----6---6---6------------|
g |----5---5---5-----------5---5---5-----------7---7---7------------------------------|
d |----------------------------------------------------------------8---8---8----------|
a |-----------------------------------------------------------------------------------|
e |-----------------------------------------------------------------------------------|

~~~~~~~~
Verse 1: (Play the Plucking) 4x
~~~~~~~~

wonrae geureon georae dadeul
naege marhae deo isangeun
No oh oh Be a be alright
butjabaseo mwol hae jal jinaera
marhae deo isangeun
No oh oh Be o be o

OK~ jugeul geotman gatdadeon nae maeumdo
OK~ kkumeul kkun deushi ijhyeo jyeo gago
I will know you nothing ever
I will know you nothing ever
da al geot gatdeon ni mami geojitmal gata

~~~~~~~
Chorus:
~~~~~~~
F5                              C5
bing bing bing nan neo eobshido Be OK
D5
bing bing bing maemdoneun gieog 
Bb5
ijen ijeullae
F5
neo eobshi jal sara.
C5
dashi dareun namjal manna
D5
Beautiful my boy~
Bb5
 sarang haetdeon geudae Bye bye

~~~~
Rap:
~~~~ 
       F5
geurae jal gara gara garago jiugiga
C5
himdeureot deon jeonhwa beonhodo
              D5 
gati geoddeon geu gireul honja georeodo
          Bb5
ijen holga bunhae neo eobshido Iím ok yo~
      F5
geuri hyeong pyeon eobtji anhatdeon
         C5
uriui manna mieot janha
deoneun huhoen eobseo
D5
saeroun chulbal jeome dashi seoseo
Bb5
chugboghae julge ijen Be Ok~

~~~~~~~~
Verse 2: (Play the Plucking ) 4x
~~~~~~~~
miryeon dwoseo mwohae soyong eobseo
No way deo isangeun
No oh oh Be a be alright
sumeul shwil ttaemada hansum man
nae shwida deo isangeun
no oh oh Be a be a

OK~ jugeul geotman gatdadeon nae maeumdo
OK~ kkumeul kkun deushi ijhyeo jyeo gago
I will know you nothing ever
I will know you nothing ever
da al geot gatdeon ni mami geojitmal gata

~~~~~~~
Chorus:
~~~~~~~
F5                              C5
bing bing bing nan neo eobshido Be OK
D5
bing bing bing maemdoneun gieog 
Bb5
ijen ijeullae
F5
neo eobshi jal sara.
C5
dashi dareun namjal manna
D5
Beautiful my boy~
Bb5
 sarang haetdeon geudae Bye bye


~~~~~~~
Bridge:
~~~~~~~
Bb5            F5                 
  shigani jina tto gieogna getji
G5
neowa naui Everything
Bb5
saranghaetdeon Everything
Bb5       F5  
uriga wae ireohge,
G5                        C5
doen geonji mwol jalmotan geonji~

~~~~~~~
Chorus: (2x)
~~~~~~~
F5                              C5
bing bing bing nan neo eobshido Be OK
D5
bing bing bing maemdoneun gieog 
Bb5
ijen ijeullae
F5
neo eobshi jal sara.
C5
dashi dareun namjal manna
D5
Beautiful my boy~
Bb5
 sarang haetdeon geudae Bye bye

~~~~~~
Outro:
~~~~~~

e |---1--1---1--3--5--6--6s8---8--8--8---5--5--5---5--3--5s6--6---6--5--3--5------------|
b |-------------------------------------------------------------------------------------|
g |-------------------------------------------------------------------------------------|
d |-------------------------------------------------------------------------------------|
a |-------------------------------------------------------------------------------------|
e |-------------------------------------------------------------------------------------|

--------------------------------------------------------------------------------------------
~End~
Tap to rate this tab
# A B C D E F G H I J K L M N O P Q R S T U V W X Y Z