Song name
# A B C D E F G H I J K L M N O P Q R S T U V W X Y Z

Yuck - Rose Gives A Lilly tab

ROSE GIVES A LILLY INTRO

these are the first 8 measures of Rose Gives A Lilly by Yuck

gtr. 1: top
gtr. 2: bottom

e|--------0-------------------------------------------------------|
B|------------0---------------------------------------------------|
G|----2-----------2-----------------------------------------------|
D|0---0---------------0-------------------4---4---4---4---4---4---|
A|------------------------0---2---2---2---2---2---2---2---2---2---|
E|----------------------------------------------------3---3---3---|

e|----------------------------------------------------------------|
B|----------------------------------------------------------------|
G|----------------------------------------------------------------|
D|----------------------------------------------------------------|
A|----------------------------------------------------------------|
E|----------------------------------------------------------------|

e|--------0-------------------------------------------------------|
B|------------0---------------------------------------------------|
G|----2-----------2-----------------------------------------------|
D|0---0---------------0-------------------4---4---4---4---4---4---|
A|------------------------0---2---2---2---2---2---2---2---2---2---|
E|----------------------------------------------------3---3---3---|

e|----------------------------------------------------------------|
B|----------------------------------------------------------------|
G|----------------------------------------0---0---0---0---0---0---|
D|----------------------------------------------------------------|
A|----------------------------------------------------------------|
E|----------------------------------------------------------------|

e|--------0-------------------------------------------------------|
B|------------0---------------------------------------------------|
G|----2-----------2-------------------------------------------2---|
D|0---0---------------0-------------------4---4---4---4---4---4---|
A|------------------------0---2---2---2---2---2---2---2---2---2---|
E|----------------------------------------------------3---3---3---|

e|--------12------------------------------------------------------|
B|------------12--------------------------------------------------|
G|----------------------------------------------------------------|
D|----------------------------------------------------------------|
A|----------------------------------------------------------------|
E|----------------------------------------------------------------|

e|--------0-------------------------------------------------------|
B|------------0---------------------------------------------------|
G|----2-----------2-----------------------------------------------|
D|0---0---------------0-------------------4---4---4---4---4---4---|
A|------------------------0---2---2---2---2---2---2---2---2---2---|
E|----------------------------------------------------3---3---3---|

e|--------12------------------------------------------------------|
B|------------12--------------------------------------------------|
G|----------------------------------------0---0---0---0---0-------|
D|------------------------------------------------------------4---|
A|----------------------------------------------------------------|
E|----------------------------------------------------------------|
Tap to rate this tab
 
# A B C D E F G H I J K L M N O P Q R S T U V W X Y Z