Song name
# A B C D E F G H I J K L M N O P Q R S T U V W X Y Z

Yuck - Suck tab

-------------------------------------------------------------------------------
			     Suck - Yuck
-------------------------------------------------------------------------------
Tabbed by: Peter Colosimo
Email:

Tuning:Standard

Guitar 1: Rhythm Intro/Verse

									  B            G#m    A
e|---------------------------------------------------------------------------o|
B|-----------------------------------------7-------7-------4--5-5------------o|
G|--13------13-11---13-13-13--9-9-9--------8-------8-------4--6-6------------o|
D|---x-------x-x-----x--x--x--x-x-x--------9-------9-------6--7-7------------o|
A|--11------11-9----11-11-11--7-7-7--------9-9-9-9-9---6-6-6--7-7------------o|
E|0--0--0-0--0-0--0--0--0--0--0-0-0----7-7-7-7-7-7-7---4-4-4--5-5------------o|

Guitar 2 w/slide: Lead Intro/Verse

e|---------------------------------------------------------------------------o|
B|---------------------------------------------------------------------------o|
G|-9/13----------------------------9/16-----------18\13-----11\9-------------o|
D|---------------------------------------------------------------------------o|
A|---------------------------------------------------------------------------o|
E|---------------------------------------------------------------------------o|

Guitar 1: Chorus

     F#m           B                                    A      G#/A
e|---------------------------------------------------------------------------o|
B|-2-2-----2-------7-----7---------------------------------------------------o|
G|-2-2-----2-------8-----8------13--11-11-11-9-9-9------6------6-------------o|
D|-4-4-----4----9--9-----9-------x--x--x--x--x-x-x------7------7-------------o|
A|-4-4-----4----9--9-----9------11--9--9--9--7-7-7------7------7-------------o|
E|-2-2-2-2-2----7--7-7-7-7---0---0--0--0--0--0-0-0--5-5-5--4-4-4-------------o|

       They can never burn out my love for you.. (back to verse)

    F#m                   A         B
e|---------------------------------------------------------------------------|
B|-2-------------------------------------------------------------------------|
G|-2---2-------2----------6---------8----------------------------------------|
D|-4---4-------4----------7---------9----------------------------------------|
A|-4---4-------4----------7---------9----------------------------------------|
E|-2---2---2-2-2----------5---------7----------------------------------------|


Guitar 2: Second Verse Lead

   Hold my hands..

e|---------------------------------------------------------------------------|
B|-4-5-4-5-4h5-5-5-5---4-5-4-5-4h5-5-5-5---/9-9-9-9-9-7-7-7--/12-12-12-12----|
G|---------------------------------------------------------------------------|
D|---------------------------------------------------------------------------|
A|---------------------------------------------------------------------------|
E|---------------------------------------------------------------------------|
			 second time around
e|----------|----------------------------------------------------------------|
B|-\9-9-9---|-/12-12-12-12--/14-14-14----------------------------------------|
G|----------|----------------------------------------------------------------|
D|----------|----------------------------------------------------------------|
A|----------|----------------------------------------------------------------|
E|----------|----------------------------------------------------------------|

Guitar 2: Second Chorus Lead (Rhythm guitar stays the same)

   F#m         B                                               A
e|-2--2--------7----7------------------------------------------0--------0----o|
B|-2----2------7------7h9-7----------------------------------5--------5------o|
G|-2------2----8------8---8--8-9----13--11-11-11-9-9-9-----6--------6--------o|
D|-4-----------9--9---9---9--9-9-----x--x--x--x--x-x-x---7--------7----------o|
A|----------------------------------11--9--9--9--7-7-7-----------------------o|
E|--------------------------------0--0--0--0--0--0-0-0-----------------------o|

       They can never burn out my love for you

    F#m                   A         B
e|---------------------------------------------------------------------------|
B|-2-------------------------------------------------------------------------|
G|-2---------------------6---------8-----------------------------------------|
D|-4---------------------7---------9-----------------------------------------|
A|-4---------------------7---------9-----------------------------------------|
E|-2---------------------5---------7-----------------------------------------|

The Outro is the same as the Intro.

The second chorus is played slightly faster than the first, so rhythm guitarist should 
use less bass notes and get right to the chords, if you know what I mean.
Tap to rate this tab
# A B C D E F G H I J K L M N O P Q R S T U V W X Y Z