Song name
# A B C D E F G H I J K L M N O P Q R S T U V W X Y Z

Yuck - Cousin Corona tab

Verse

G|-----------------------------------|
D|------------------------------2242-|
A|-------4-4444-----------4-4444-----|
E|5-5-222------000-5-5-222-----------|

G|----------------------------------|
D|----------------------------------|
A|-------4-4444-----------4-444444--|
E|5-5-222------000-5-5-222----------|

Chorus 1

G|---------------------------|
D|---------------------------|
A|5-5-5-5-22222222-----------|
E|----------------5552-2-2-2-|

G|--------------------------------------------|
D|--------------------------------------------|
A|5-5-5-5722222222----------------------------|
E|----------------5552-2-2-2-0000000000000242-|

Verse

Chorus 1

Without the E|0242 at the end

Chorus 2

G|--------------------------------|
D|--------------------------------|
A|5-5-557--------5-5-555----------|
E|-------5-555555-------2-2222000-|

G|---------------------------------------------|
D|---------------------------------------------|
A|5-5-557--------5-5-555-----------------------|
E|-------5-555555-------0000000012121212121412-|    (12 & 14 not 1 2 1 4)

Solo (Same as the verse on bass)

Chorus 2 (Until the end)

Not 100% sure on the timings and rhythms at some parts but its not that hard to work it out.
Also this is my first tab so sorry if it looks a bit messy.
Tap to rate this tab
# A B C D E F G H I J K L M N O P Q R S T U V W X Y Z