Song name
# A B C D E F G H I J K L M N O P Q R S T U V W X Y Z

Yuck - The Wall tab

Guitar 1 (Max)

(0:01) x5
e|----------------|----------------|----------------|----------------|
B|----------------|----------------|----------------|----------------|
G|5---5-5-5-5-5-4-|--4-4-4---4-4-4-|5---5-5-5-5-5-7-|--7-7-7---7-7-7-|
D|5---5-5-5-5-5-5-|--5-5-5---5-5-5-|5---5-5-5-5-5-5-|--5-5-5---5-5-5-|
A|3---3-3-3-3-3-3-|--3-3-3---3-3-3-|3---3-3-3-3-3-3-|--3-3-3---3-3-3-|
E|----------------|----------------|----------------|----------------|

e|----------------|----------------|----------------|----------------|
B|----------------|----------------|----------------|----------------|
G|9---9-9-9-9-9-12|--121212--121212|9---9-9-9-9-9-12|--121212--121212|
D|10--101010101010|--101010--101010|10--101010101010|--101010--101010|
A|8---8-8-8-8-8-8-|--8-8-8---8-8-8-|8---8-8-8-8-8-8-|--8-8-8---8-8-8-|
E|----------------|----------------|----------------|----------------|


(1:11) x1
e|----------------|----------------|----------------|----------------|
B|----------------|----------------|----------------|----------------|
G|5---5-5-5-5---4-|--4-4-4---------|5---5-5-5-7---7-|--7-7-7---5-5-5-|
D|x---x-x-x-x---x-|--x-x-x---7-7-7-|x---x-x-x-x---x-|--x-x-x---x-x-x-|
A|3---3-3-3-3---2-|--2-2-2---x-x-x-|3---3-3-3-5---5-|--5-5-5---3-3-3-|
E|----------------|----------5-5-5-|----------------|----------------|

e|----------------|----------------|----------------|-----------------|
B|----------------|----------------|----------------|-----------------|
G|9---9-9-9-9-9---|----------------|9---9-9-9-9-9-12|14-14-14-14-14-14|
D|x---x-x-x-x-x-7-|--7-7-7---5-5-5-|x---x-x-x-x-x-x-|x--x--x--x--x--x-|
A|7---7-7-7-7-7-x-|--x-x-x---x-x-x-|7---7-7-7-7-7-10|12-12-12-12-12-12|
E|--------------5-|--5-5-5---3-3-3-|----------------|-----------------|


(1:25) x2
e|----------------|----------------|----------------|----------------|
B|----------------|----------------|----------------|----------------|
G|9---9-9-9-9-9-7-|--7-7-7---5-5-5-|9---9-9-9-9-9-7-|--7-7-7---5-5-5-|
D|x---x-x-x-x-x-x-|--x-x-x---x-x-x-|x---x-x-x-x-x-x-|--x-x-x---x-x-x-|
A|7---7-7-7-7-7-5-|--5-5-5---3-3-3-|7---7-7-7-7-7-5-|--5-5-5---3-3-3-|
E|----------------|----------------|----------------|----------------|

e|-----------------|-----------------|----------------|----------------|
B|-----------------|-----------------|----------------|----------------|
G|12-12-12-12-12-12|12-12-12-12-14-14|9---9-9-9-9-9-7-|--7-7-7---5-5-5-|
D|x--x--x--x--x--x-|x--x--x--x--x--x-|x---x-x-x-x-x-x-|--x-x-x---x-x-x-|
A|10-10-10-10-10-10|10-10-10-10-12-12|7---7-7-7-7-7-5-|--5-5-5---3-3-3-|
E|-----------------|-----------------|----------------|----------------|

(1:53) x1
e|-----------------|-----------------|-----------------|-----------------|
B|-----------------|-----------------|-----------------|-----------------|
G|17-17-17-17-17-17|17-17-17-17-17-17|17-17-17-17-17-17|17-17-17-17-17-17|
D|x--x--x--x--x--x-|x--x--x--x--x--x-|x--x--x--x--x--x-|x--x--x--x--x--x-|
A|15-15-15-15-15-15|15-15-15-15-15-15|15-15-15-15-15-15|15-15-15-15-15-15|
E|-----------------|-----------------|-----------------|-----------------|

e|-----------------|-----------------|-----------------|------------------|
B|17----17-17-17-17|15----15-15-15-15|10----10-10-10-10|5---5-5-5-5-5-5-5-|
G|19^21-21-21-21-21|17^19-19-19-19-19|12^14-14-14-14-14|7^9-9-9-9-9-9r7-7-|
D|--bend to unison-|-----------------|-----------------|------------------|
A|-----------------|-----------------|-----------------|------------------|
E|-----------------|-----------------|-----------------|------------------|


(2:06) - Same as (0:01) x1


(2:20) - Same as (1:25) x1


(2:34) - Same as (1:53) x4



Guitar 2 (Daniel)
(0:01) x15
e|0---0-0-0-0-0-0-|--0-0-0---0-0-0-|0---0-0-0-0-0-0-|--0-0-0---0-0-0-|
B|1---1-1-1-1-1-0-|--0-0-0---0-0-0-|1---1-1-1-1-1-3-|--3-3-3---3-3-3-|
G|0---0-0-0-0-0-0-|--0-0-0---0-0-0-|0---0-0-0-0-0-0-|--0-0-0---0-0-0-|
D|2---2-2-2-2-2-2-|--2-2-2---2-2-2-|2---2-2-2-2-2-2-|--2-2-2---2-2-2-|
A|3---3-3-3-3-3-3-|--3-3-3---3-3-3-|3---3-3-3-3-3-3-|--3-3-3---3-3-3-|
E|----------------|----------------|----------------|----------------|

e|0---0-0-0-0-0-0-|--0-0-0---0-0-0-|0---0-0-0-0-0-0-|--0-0-0---0-0-0-|
B|1---1-1-1-1-1-0-|--0-0-0---0-0-0-|1---1-1-1-1-1-1-|--0-0-0---0-0-0-|
G|2---2-2-2-2-2-2-|--2-2-2---2-2-2-|2---2-2-2-2-2-2-|--2-2-2---2-2-2-|
D|3---3-3-3-3-3-3-|--3-3-3---3-3-3-|3---3-3-3-3-3-3-|--3-3-3---3-3-3-|
A|3---3-3-3-3-3-3-|--3-3-3---3-3-3-|3---3-3-3-3-3-3-|--3-3-3---3-3-3-|
E|----------------|----------------|----------------|----------------|
Tap to rate this tab
 
# A B C D E F G H I J K L M N O P Q R S T U V W X Y Z