Song name
# A B C D E F G H I J K L M N O P Q R S T U V W X Y Z

Yuck - Soothe Me chords

Highlighted       Show chord diagrams
Artist: Yuck
Album: Yuck (2011)
Song: Soothe Me

Verse 1:

Asus2          E          Emaj7        Asus2
    Only  you  know  that  I  was  so  ashamed 

Asus2           E    Emaj7        Asus2
We're playing a game, we are so arranged 

Asus2       E        Emaj7            Asus2
Go where I go in this hell life that I know 

Asus2         E          Emaj7           Asus2
Seek what I seek, and the people that you meet


Chorus:

Asus2        E            C#m           E
So soothe me, don't use me I'm not your oxygen 

Asus2        E            C#m           E
So soothe me, don't use me I'm not your drug


Verse 2:

Asus2      E     Emaj7         Asus2
Babe, I'm tired, our love has expired 

Asus2      E     Emaj7         Asus2
Babe, I'm tired, our love has expired 

Asus2        E             Emaj7           Asus2
I give you a change and the banquets of my brain  

Asus2        E          Emaj7           Asus2
I give you a change and all you give is pain


Chorus 2 (slight change in this one):

Asus2        E            C#m           E
So soothe me, don't use me I'm not your oxygen 

Asus2        E            C#m           E
So soothe me, don't use me I'm not your oxygen 

F#           A            E             B
So soothe me, don't use me I'm not your oxygen 

F#           A            E             B
So soothe me, don't use me I'm not your oxygen 

F#           A            E             B
So soothe me, don't use me I'm not your oxygen 

F#           A
So soothe me, don't use me...


Same chords as the verse for the break and solo:

Asus2, E, Emaj7, Asus2


Solo tab (Use an echoey delay):

e|--------------------------------------------|
B|---9h12~------------10p9--------------------|
G|--------------------------9--9~-------------|
D|--------------------------------------------|
A|--------------------------------------------|
E|--------------------------------------------|


e|----------------------16h19~--17--16--------|
B|---12h15~-------------------------------17~-|
G|--------------------------------------------|
D|--------------------------------------------|
A|--------------------------------------------|
E|--------------------------------------------|


Last Chorus:

Asus2        E            C#m           E
So soothe me, don't use me I'm not your oxygen 

Asus2        E            C#m           E
So soothe me, don't use me I'm not your oxygen 

Asus2        E            C#m           E
So soothe me, don't use me I'm not your oxygen 

Asus2        E            C#m           E
So soothe me, don't use me I'm not your 'gen 


END.
Tap to rate this tab
 
# A B C D E F G H I J K L M N O P Q R S T U V W X Y Z