Song name
# A B C D E F G H I J K L M N O P Q R S T U V W X Y Z

Yuck - Middle Sea tab

Capo on 2nd Fret

I didn't tab the exact rhythms but they're easy to figure out. I also didn't tab the 
entire structure of the song, just all the bits and pieces.


Main Riff:

B

e|------------------------------------------------------------------|
B|------------------------------------------------------------------|
G|------------------------------------------------------------------|
D|--11--11---13---13---9----2-4-2-----------------------------------|
A|--0---0----0----0----0----0-0-0-----------------------------------|
E|------------------------------------------------------------------|

Verse riff:

D

e|----------------------------------------------------------------------|
B|----------------------------------------------------------------------|
G|----11--9--8--9--8----2-2-2-h-4---------------------------------------|
D|----0---0--0--0--0----0-0-0---0---------------------------------------|
A|----------------------------------------------------------------------|
E|----------------------------------------------------------------------|


Chorus:

E - D - B (Play Main Riff Twice)

E - D - B - D

End Chorus Break:

e|------------------------------------------------------------|
B|------------------------------------------------------------|
G|----11--8--9---11--8--9---11--8--9------------------- ------|
D|----0---0--0---0---0--0---0---0--0--------------------------|
A|------------------------------------------------------------|
E|------------------------------------------------------------|


Bridge after 2nd Chorus:

Main Riff x 4

Then

e|--------------------------------------------------------------|
B|--------------------------------------------------------------|
G|-15--------11--------15-------16------------------------------|
D|-x-- x8 ----x-- x8 ----x-- x8 ---x-- x8 ----------------------|
A|-13--------13--------13-------14------------------------------|
E|--------------------------------------------------------------|

Main Riff x 2

Then play this x 2

e|--------------------------------------------------------------|
B|--------------------------------------------------------------|
G|-15--------11--------15-------16------------------------------|
D|-x-- x8 ----x-- x8 ----x-- x8 ---x-- x8 ----------------------|
A|-13--------13--------13-------14------------------------------|
E|--------------------------------------------------------------|

Main Riff x 6

Chorus

E - D - B (Play Main Riff Twice)

E - D - B - D

End Chorus Break: x 4

e|------------------------------------------------------------|
B|------------------------------------------------------------|
G|----11--8--9---11--8--9---11--8--9------------------- ------|
D|----0---0--0---0---0--0---0---0--0--------------------------|
A|------------------------------------------------------------|
E|------------------------------------------------------------|

Then Finish on

B
Tap to rate this tab
# A B C D E F G H I J K L M N O P Q R S T U V W X Y Z