Song name
# A B C D E F G H I J K L M N O P Q R S T U V W X Y Z

Yuck - Operation tab

-------------------------------------------------------------------------------
                           Operation ~ Yuck
-------------------------------------------------------------------------------
Tabbed by: Chris
E-mail: BLAH (YOU CAN"T HAS)

Tuning:Standard

Self explanatory if you know the song.... Please know the song. I think its kinda right 
but seeing as its a two guitar song its pretty hard to know. Sounds right to me?

Intro
      GUITAR 1
e|-----x-------|------------------------------------------------------------|
B|-----x-------|------------------------------------------------------------|
G|-----x-------|-------------9----------------------------------------------| x3
D|-----2-------|------------x-----------------------------------------------|
A|-----2-------|------------7-----------------------------------------------|
E|-----0-------|------------0-----------------------------------------------|

RIFF 1

e|------------------------------------|--------------------------------------|
B|------------------------------------|--------------------------------------|
G|------------------------------------|---11--13--9--8-----------------------|
D|---------------6--------------------|---x---x---x--x-----------------------|
A|-------9-----9---7-7-7-7---6-6-6-6--|---9---11--7--6-----------------------|
E|---0-0-0-0-0-0-0-0-0-0-0-0-0-0-0-0--|--------------------------------------|

RIFF 2

e|-------------------------------------|-------------------------------------|
B|-------------------------------------|-------------------------------------|
G|-------------------------------------|---8--9--4---------------------------|
D|-------6-----7---6-6-6-7-7-7-7-------|---x--x--x---------------------------|
A|-------------------------------------|---6--7--2---------------------------|
E|---5-5-5-5-5-5-5-5-5-5-5-5-5-5-------|-------------------------------------|

Fill at 1:32

e|---------------------------------------------------------------------------|
B|----------------------(16)-------------------------------------------------|
G|--4-9-8-6-4-9-11-13-14-16--------------------------------------------------|
D|----------------------(16)-------------------------------------------------|
A|---------------------------------------------------------------------------|
E|---------------------------------------------------------------------------|

Pre Chorus: Chord from intro

CHORUS--- Got this from the video... it doesn't sound quite right but eh....

e|---------------|---------------|---------------|-----------------------------|
B|---------------|---------------|---------------|-----------------------------|
G|---6--8--6--8--|--9--13--8-----|---6--8--6--8--|--9--16--8-------------------|
D|---7--9--7--9--|--x--x---x-----|---7--9--7--9--|--x--x---x-------------------|
A|---7--9--7--9--|--7--11--7-----|---7--9--7--9--|--7--11--7-------------------|
E|---5--7--5--7--|---------------|---5--7--5--7--|-----------------------------|


************************************

| /   slide up
| \   slide down
| h   hammer-on
| p   pull-off
| ~   vibrato
| +   harmonic
| x   Mute note
| b   Bend
| pb  Pre-bend
| br  Bend release
| pbr Pre-bend release
| brb Bend release bend

************************************
Tap to rate this tab
# A B C D E F G H I J K L M N O P Q R S T U V W X Y Z