Song name
# A B C D E F G H I J K L M N O P Q R S T U V W X Y Z

Yuck - Operation tab

-------------------------------------------------------------------------------
			     Operation - Yuck
-------------------------------------------------------------------------------
Tabbed by: mryello
E-mail: Mmmm no.

Tuning: Standard

Dear guitar player: trying to figure this song out intuitively is impossible, because
what may sound like normal power chords and octaves, well, aren't. There's two guitars,
and the chord shapes are pretty unorthodox. The timing of the guitars as implied by the 
tab DOES NOT ALWAYS MATCH UP; Listen to the song for the timing. Watch them play it to get
the gist of it: http://www.youtube.com/watch?v=haxSHthWsWs


For the intro, guitar 2 drops the pitch with the whammy bar. If you lack the whammy bar,
just play it as shown.

Guitar 1, intro (Let ring, then pull off whole chord)
e|--------------------------------------------------------------------------|
B|--------------------------------------------------------------------------|
G|------------9-------------------------------------------------------------|
D|------------x-------------------------------------------------------------|
A|------------7-------------------------------------------------------------|
E|------------0-------------------------------------------------------------|

Guitar 2, intro (two strums, then 16 strums)
e|----------------------------|---------------------------------------------|
B|----------------------------|---------------------------------------------|
G|-------------9---------9----|-------------9-------------------------------|
D|-------------x----- ---x----|-------------x-------------------------------|
A|-------------7---------7----|-------------7-------------------------------|
E|-------------0---------0----|-------------0-------------------------------|


Guitar 1, verse part 1 (sometimes he throws a bend on the 2nd strum and multiple bends
on the last 3 strums)
e|----------------------------------------------------------------------------|
B|----------------------------------------------------------------------------|
G|----------------------------------------------------------------------------|x2
D|----------------------------------------------------------------------------|
A|----------9----x----9----7---7--7--7-----2--2--2----------------------------|
E|----------0----x----0----0---0--0--0-----0--0--0----------------------------|

Guitar 2, verse part 1 (silent)
e|--------------------------------------------------------------------------|
B|--------------------------------------------------------------------------|
G|--------------------------------------------------------------------------|
D|--------------------------------------------------------------------------|
A|--------------------------------------------------------------------------|
E|--------------------------------------------------------------------------|


Guitar 1, verse part 2 (again, bend on the second strum)
e|----------------------------------------------------------------------------|
B|----------------------------------------------------------------------------|
G|-------11-x--11---9--9--9--9---8--8--8--8-----------------------------------|
D|-------x--x--x----x--x--x--x---x--x--x--x-----------------------------------|x2
A|-------x--x--x----x--x--x--x---x--x--x--x-----------------------------------|
E|-------9--x--9----9--9--9--9---7--7--7--7-----------------------------------|

Guitar 2, verse part 2
e|----------------------------------------------------------------------------|
B|----------------------------------------------------------------------------|
G|-------11-x--11---9--9--9--9---8--8--8--8-----------------------------------|
D|-------x--x--x----x--x--x--x---x--x--x--x-----------------------------------|x2
A|-------x--x--x----x--x--x--x---x--x--x--x-----------------------------------|
E|-------9--x--9----7--7--7--7---7--7--7--7-----------------------------------|

Guitar 1, Bridge ("I wanna be well designed....") [play entire section x4]
e|---------------------------|----------------------------------------------|
B|---------------------------|----------------------------------------------|
G|---------------------------|----------------------------------------------|
D|--------6-x-7---6------7---|----------------------------------------------|
A|--------x-x-x---x------x---|------6-6-x-6----7-------2--------------------|
E|--------5-x-5---5------5---|------0-0-x-0----0-------0--------------------|

e|---------------------------|----------------------------------------------|
B|---------------------------|----------------------------------------------|
G|---------------------------|----------------------------------------------|
D|--------6-x-7---6------7---|----------------------------------------------|
A|--------x-x-x---x------x---|------6-6-x-6----7-------14-------------------|
E|--------5-x-5---5------5---|------0-0-x-0----0-------0--------------------|

Guitar 2, Bridge ("I wanna be well designed....)
e|---------------------------|------------------------------------------------|
B|---------------------------|------------------------------------------------|
G|--------(silent)-----------|-----8-8-x-8------9-------4---------------------|x4
D|---------------------------|-----x-x-x-x------x-------x---------------------|
A|---------------------------|-----6-6-x-6------7-------2---------------------|
E|---------------------------|------------------------------------------------|


[Both guitars do verse parts again]
Guitar 2 adds this fill during 2nd verse, listen for it:
e|--------------------------------------------------------------------------|
B|-4/9--8--6--4--9--11--13--14--9-------------------------------------------|
G|--------------------------------------------------------------------------|
D|--------------------------------------------------------------------------|
A|--------------------------------------------------------------------------|
E|--------------------------------------------------------------------------|


Guitar 1, Chorus (use pinky to add on alternating fret 8 G string)
e|-----------------|--------------------------|-----------------------------|
B|-----------------|--------------------------|-----------------------------|
G|----7------------|------6----8--(alternates)|---9---13----8---------------|
D|----9---(x16)----|------7----7--------------|---x----x----x---------------|
A|----9------------|------x----x--------------|---7---11----6---------------|
E|----7------------|------5----5--------------|-----------------------------|

e|-------------------------|-----------------------------|
B|-------------------------|--------12-------------------|
G|-----6----8-(alternates)-|---9----x----8---------------|
D|-----7----7--------------|---x----9----x---------------|
A|-----x----x--------------|---7---------6---------------|
E|-----5----5--------------|-----------------------------|

Guitar 2, Chorus
e|---------------------------------------------------------|
B|---------------------------------------------------------|
G|----7----------------------------------------------------|
D|----9---(x16)--------------------------------------------|
A|----9----------------------------------------------------|
E|----7----------------------------------------------------|

e---------------------------|------------------------------|
B---------------------------|------------------------------|
G-----------6---------------|---1--------------------------|
D-----------7---------------|---2--------------------------|x2
A-----------7---------------|---2--------------------------|
E-----------5---------------|---0--------------------------|

[Both guitars do verse parts again, then chorus again; listen to the song for structure.]

Guitar 1, outro
e|-----------------------|--------------------------------------------------------|
B|-----------------------|--------------------------------------------------------|
G|--11----9----4---------|-------11----9----8------8-8h9--------------------------|
D|--x-----x----x-----(x2)|--------x----x----x-------------9-----------------------|
A|--9-----7----2---------|--------x----x----x-------------------------------------|
E|-----------------------|--------9----9----7-------------------------------------|

e|-----------------------|--------------------------------------------------------|
B|-----------------------|-------------12-----------------------------------------|
G|--11----9----4---------|-------11b---x---------------1--------------------------|
D|--x-----x----x-----(x2)|--------x----9---------------2--------------------------|
A|--9-----7----2---------|--------x--------------------2--------------------------|
E|-----------------------|--------9--------------------0--------------------------|


************************************

| /   slide up
| \   slide down
| h   hammer-on
| p   pull-off
| ~   vibrato
| +   harmonic
| x   Mute note
| b   Bend
| pb  Pre-bend
| br  Bend release
| pbr Pre-bend release
| brb Bend release bend

************************************
Tap to rate this tab
 
# A B C D E F G H I J K L M N O P Q R S T U V W X Y Z