Song name
# A B C D E F G H I J K L M N O P Q R S T U V W X Y Z

Yui - Tomorrows Way Acoustic tab

Tuning: Standard.

E---12--10-9------------------------9-10p9------------------------------8/9~--9p10---------------|
B--------------11/12--10-----10-12----------12-----------9-9p10-10--12-------------12--10-9~~----|
G---------------------------------------------------9-11-----------------------------------------|
D------------------------------------------------------------------------------------------------|
A------------------------------------------------------------------------------------------------|
E------------------------------------------------------------------------------------------------|


Verse
Ima wo...
Chords used:  A-G-Dsus2
when it comes to Dsus2, it goes like this

E----------0----------0-----------|
B-------------3--------3----------|
G--------2--------------2---------|
D-----0-----------0---------------|
A---------------------------------|
E---------------------------------|

then, continued verse
Bm-C#m-Bm-E

[Verse 2x]

Pre Chorus/Refrain(I don't know.haha):
Chords used:

(Nigedashitai ...dou kara..)
D-A  when it's near chorus, then  D-E-C#(I prefer the 10th fret)

Chorus:
Chords used: A-Dsus2-F#-E-C#m-F#m-Bm-E 2x

After Chorus:
A-E-D-Dsus2

Verse 2:
same as Verse 1

Bridge:
D-C#m-D-E

Solo:
E-------------------------------------------------------------------------------------------|
B-------------------------------------------------------------------------------------------|
G------------9h11-11~--1414-11-1314---1414-13-11-11h13p11--9-9h11p7--6h7p6~-----------------|
D--------9h11-------------------------------------------------------------------------------|
A----9h11-----------------------------------------------------------------------------------|
E-------------------------------------------------------------------------------------------|

continued

E--------------7-9-10---9-10-11/12--10-9h10p9--12-10-12/1414-1616-1717----1717-16-14h16p12-12h14p10-|
B---10-9-7-9-10-------------------------------------------------------------------------------------|
G---------------------------------------------------------------------------------------------------|
D---------------------------------------------------------------------------------------------------|
A---------------------------------------------------------------------------------------------------|
E---------------------------------------------------------------------------------------------------|

continued

E----9h10p9~~----|
B----------------|
G----------------|
D----------------|
A----------------|
E----------------|
(Repeat Chorus)


then... that's it.
:D
eheheh

comments. :D
Tap to rate this tab
# A B C D E F G H I J K L M N O P Q R S T U V W X Y Z