Song name
# A B C D E F G H I J K L M N O P Q R S T U V W X Y Z

Yui - Again tab

Learned by ear, if you have proposition for it or ideas for rest, send it to nelec1@o2.pl

Artist: Yui
Song: Again (Fullemtal Alchemist: Brotherhood opening)
tabbed by: kelen (nelec1@o2.pl)

This part is intro played by lead guitar

e|---------------------------------------------------------|
B|---------------------------------------------------------|
G|-------12-11--------------12-11-/14-12-11----------------|
D|-/9-12-------12\----/9-12--------------------13----------|  
A|---------------------------------------------------------|
E|---------------------------------------------------------|

e|---------------------------------------------------------|
B|---------------------------------------------------------|
G|-------12-11--------------12-11--------------------------|
D|-/9-12-------12\----/9-12-------13~~*--------------------|  
A|---------------------------------------------------------|
E|---------------------------------------------------------|

LEGEND

/* - slides from down to note
*\ - slides from note to down
~~* - bend, down, bend, down, strong vibrato
Tap to rate this tab
 
# A B C D E F G H I J K L M N O P Q R S T U V W X Y Z