Song name
# A B C D E F G H I J K L M N O P Q R S T U V W X Y Z

Yui - Love Is All chords

Highlighted       Show chord diagrams
YUI - Love is all

Intro:
F#m E A
F#m E D A
F#m E D

Verse:
F#m D A E (x4)
D E
D E C#

Chorus:
D Dm A (x2)
F#m E D A
F#m E D
E

Instrumental:
F#m E D A
F#m E D

Repeat Verse

Repeat Chorus

Solo:
F#m E D A
F#m E D

Interlude:
B D (X4)
C#

Repeat Chorus

Outro:
F#m E Dsus2 E
F#m E Dsus2
Intro:
-----4-0-------------0----/5-4----5-4---------------------/5-4----5-4---------------------|
-----------------------3-------5------5--3--2-2-3--------------5------5--3--2-2-3---------|
---2--------4------2-------------------------------2/4-2---------------------------2/4-2--|
-4--------2---2--0------------------------------------------------------------------------|
------------------------------------------------------------------------------------------|
------------------------------------------------------------------------------------------|

Instrumental:
-------0--------4------0h2p0--------0--------4-0-------------0------2-|
---------0-------------------3--------0------------------------3------|
-----2------2/4------2------------2--------2--------4------2------2---|
-2/4---------------0---------------------4--------2---2--0------------|
--------------------------------0-------------------------------------|
----------------------------------------------------------------------|

Solo:

-------------------------------------------------9-10-10/16-16-16/17--17/19-17-|
------10-----10--9-10-10/12-10-9h10p9----9-10/12-------------------------------|
----9-------9-------------------------11---------------------------------------|
-/11-----/11-------------------------------------------------------------------|
-------------------------------------------------------------------------------|
-------------------------------------------------------------------------------|

--19-17-19-19b21--19b21b19-16-17-|
-17------------------------------|
---------------------------------|
---------------------------------|
---------------------------------|
---------------------------------|

Outro:
-----0--------0------0--------0--------0--|
--------0-----3--------0---------0-----3--|
---2-------2--2----1--------2-------2--2--|
-4------------0--2--------4------------0--|
------------------------------------------|
------------------------------------------|
Tap to rate this tab
# A B C D E F G H I J K L M N O P Q R S T U V W X Y Z