Song name
# A B C D E F G H I J K L M N O P Q R S T U V W X Y Z

Yui - Tomorrows Way tab

Yui- Tomorrow's way
Tabbed by: kadamczy@gmail.com

e|-12--10--9------------------------9--9h10--9----------|
B|------------10/12---10~~~~--10-12-------------10/12---|
G|------------------------------------------------------|
D|------------------------------------------------------|
A|------------------------------------------------------|
E|------------------------------------------------------|

e|---------------------------7/9---9h10-----------------|
B|--------9--9/10-10----12--------------12--10--9-------|
G|-9--11------------------------------------------------|
D|------------------------------------------------------|
A|------------------------------------------------------|
E|------------------------------------------------------|

The other version was a bit off so I decided to just make a quick tab for those wanting 
play this little riff. I'm bad at telling when it's a hammer-on or slide so please bear 
me.
Tap to rate this tab
 
# A B C D E F G H I J K L M N O P Q R S T U V W X Y Z