Song name
# A B C D E F G H I J K L M N O P Q R S T U V W X Y Z

Yukon Blonde - Loyal Man tab

Noticed there was no tab of this song yet i just have the intro right now

-----------------------------------------------------------------------------
                             LOYAL MAN - Yukon Blonde
-----------------------------------------------------------------------------
Tabbed by:Nick Rohla
Email:nickrohla@gmail.com

Tuning:standard

e|------------------------------------|
B|------------------------------------|
G|-9-8-6-----------------4------------| X2
D|-6-6-6-----/6~---6-6-----4-4h6--2/6-|
A|-7-7-7-----/7~---7-7----------------|
E|-------0-0-----0-----0--------------|
Tap to rate this tab
# A B C D E F G H I J K L M N O P Q R S T U V W X Y Z