Song name
# A B C D E F G H I J K L M N O P Q R S T U V W X Y Z

Yumyumorange - Dont Worry Be Happy tab

DONT WORRY BE HAPPY
YUM! YUM! ORANGE

tabbed by kenji

This tab is the guitar solo only
I think it is no less than 99% accurate
If there is error I'll update it maybe in the future
but i think there is nothing.


legend:
b - bend
~ - vibrato

GUITAR SOLO:

E|-------11-------15-11------------------------12-11-------|
B|-14b16----14-12-------12b14-12~-------12-14~-------14-12-|
G|--------------------------------11-13--------------------|
D|---------------------------------------------------------|
A|---------------------------------------------------------|
E|---------------------------------------------------------|

E|----------------------------------------------------|
B|-11-------------------------------------------------|
G|----13-11-------------------------------------------|
D|----------14-13-11----------11-------------11-------|
A|-------------------14-13-14-------11-13-14----14-13-|
E|-------------------------------14-------------------|

E|--------------------------|
B|-------------------11-12~-|
G|-------------11-13--------|
D|----11-13-14--------------|
A|-14-----------------------|
E|--------------------------|

Yum!Yum!ORANGE Official Website:
http://www.yumyumorange.jp/
Tap to rate this tab
# A B C D E F G H I J K L M N O P Q R S T U V W X Y Z