Song name
# A B C D E F G H I J K L M N O P Q R S T U V W X Y Z

Yuna - Someone Out Of Town tab

Someone Out of Town by Yuna
This is my very first tab hope you guys enjoy it

tuning: standard (EADGBe)

NOTE: This song is being fingerpicked, if you cant get the rythem done check out this 
video it helps.
http://www.youtube.com/watch?v=Z_70wn5iBXw

    Riff 1
e|----------------------------|
B|----------1-------1---------|
G|----------2---------2-------|
D|----------------------------|
A|----------------------------|
E|-------1--------1-----------|

    Riff 2
e|----------------------------|
B|----------5-----------------|
G|----------5-----------------|
D|----------------------------|
A|----------------------------|
E|-------5--------------------|

    Riff 3
e|----------------------------|
B|------3---------3-----------|
G|------4-----------4---------|
D|----------------------------|
A|----------------------------|
E|-----------3----------------|

Riff 1
Riff 2
Riff 3
(repeat that the whole song)


   Bass (repeat the whole song)
e|----------------------------|
B|----------------------------|
G|----------------------------|
D|----------------------------|
A|----------------------------|
E|---1--1--1--1--5--5--3--3---|



NOTE THIS IS NOT PART OF THE SONG********
BUT I ADDED A LEAD PART TOO THE SONG*****
WORK IN PROGRESS*************************
  Who is this stranger
e|--------------------|
B|--------------------|
G|--------------------|
D|--------------------|
A|-----------7---3----|
E|--------------------|


  I should be scared
e|--------------------------|
B|--------------------------|
G|--------------------------|
D|---------5----------------|
A|-----7-8---8-7-5-7-3------|
E|--------------------------|

  could be dangerous
e|--------------------|
B|--------------------|
G|--------------------|
D|--------------------|
A|-----------7---3----|
E|--------------------|

  I should prepare for this
e|--------------------------|
B|--------------------------|
G|--------------------------|
D|---------5----------------|
A|-----7-8---8-7-5-7-3------|
E|--------------------------|


I wish I didnít fall so hard for you
e|--------------------------|
B|--------------------------|
G|--------------------------|
D|--------------------------|
A|--------------------------|
E|--------------------------|
Tap to rate this tab
# A B C D E F G H I J K L M N O P Q R S T U V W X Y Z