Song name
# A B C D E F G H I J K L M N O P Q R S T U V W X Y Z

Yuna - Decorate tab

-------------------------------------------------------------------------------
                            Yuna- Decorate
-------------------------------------------------------------------------------
Tabbed by: sanusizulkifli
Email:-

Tuning: Standard

e|---------------------------------------------------------------------------|
B|---------3------------3-----------3--------------3-------------3-----------|
G|------4-----4-----4-----4------4-----4-------4------4-------4-----4---------
D|---------------------------------------------------------------------------|
A|---------------------------------------------------------3-----------------|
E|----3----------3------------3------------3---------------------------------|

e|---------------------------------------------------------------------------|
B|--------3----------3-------------3-------------3--------------3------------|
G|-----4----4-----4----4-------4-----4-------4------4-------4-----4----------|
D|---------------------------------------------------------------------------|
A|--3---------3----------3---------------------------------------------------|
E|---------------------------------------3------------3----------------------|

e|---------------------------------------------------------------------------|
B|---------3-----------3---------------3----------3---------3----------------|
G|------4-----4----4-------4--------4----4-----4----4-----4---4--------------|
D|---------------------------------------------------------------------------|
A|------------------------------3----------3----------3---------3------------|
E|----3---------3------------------------------------------------------------|


so its pretty much like this..
sorry if its not that good
this is my first tabbing. :P
follow me @twiiter @sanusizulkifli

Tap to rate this tab
# A B C D E F G H I J K L M N O P Q R S T U V W X Y Z