Song name
# A B C D E F G H I J K L M N O P Q R S T U V W X Y Z

Yuna - Decorate chords

Highlighted       Show chord diagrams
Song : Decorate-Yuna
Tabbed by : qiesha amsya


Simple chords for easy play 

chords : G-C-Em-C  
1e Solo :
e|--------------------------------------------------------|
B|---------3------------3-----------3--------------3------|
G|------4-----4-----4-----4------4-----4-------4------4---|
D|--------------------------------------------------------|
A|--------------------------------------------------------|
E|----3----------3------------3------------3--------------|

e|-----------------------------------------------|
B|-------3----------3--------3----------3--------|
G|----4-----4----4----4----4----4-----4----4-----|
D|-----------------------------------------------|
A|-3----------3----------3---------3----------3--|
E|-----------------------------------------------| 




e|-----------|
B|-----3-----|
G|--------4--|
D------------|
A|-----3-----|
E|-----------| 



---------------
Yuna-Decorate
---------------
                   G
So you decided to see me out of the blue
                       C
Should I let you come over
                      Em
I think you're doing fine
That girl in your arms
 C
Does she know where you come from
  G
Almost made me move out of town
  C
You don't want me to be around
              Em
But I stayed anyway
        C
Just in case
 G
Finding reasons to hate you more than before
                             C
Like how you said you would call
              Em
But never at all
                                        C
Got rid off your number that I know by heart
 G
You left your things at my place
 C
As if I have all the space
                       Em
Cause you know I don't mind
           C
Just come back when you think it's time
 G                 C
I'm all black and white inside
Em               C
Monotonous from left to right
    G          C                    Em
I decorate my house with things you love
                     C
Just in case you show up
                 G
In case you show up

***(SAME PROGRESSION THE WHOLE SONG)***

So you decided to see me out of the bleu
Should I let you come over
You do this all the time
You come come and you go like 
I'm nothing you know
Every time you come back to me
I'm prepared to watch you leave
You can't make your mind off
About me
I imagine what it's like, what if you might
Leave everything and come home
but I know that you would't
Throughout I been through
I still worry about you
you're acting with al your friends
It's definitely the end
But you know I don't mind
Just come back when you think it's time
i'm all black and white inside
Monotonous from left to right
I decorate my house with things you love
Just in case you show up....
In case you show up

I'm all black and white inside
Monotonous from left to right
I decorate my house with things you love
Just in case you show up....
In case you show up
Tap to rate this tab
# A B C D E F G H I J K L M N O P Q R S T U V W X Y Z