Song name
# A B C D E F G H I J K L M N O P Q R S T U V W X Y Z

Yuna - Deeper Conversation tab

Deeper Conversation
Yuna


Plucking for intro and first two verses. Strum the same chords for the rest of the song.


INTRO

        Em                    A                     D

e|------0-----------------------------2-----2-----2h3p2---2----|
B|--------0---0------2-2h3p2---3--------3-----3---3-----3------|
G|----------0------2---------2------2-----2-----2--------------|
D|----2---------------------------0----------------------------|
A|--2------------0---------------------------------------------|
E|-------------------------------------------------------------|


        Em                    A                     D

e|--------0-----------------------------2-----2-----2h3p2---2--|
B|--------0------------2-2h3p2---3------3-3-----3---3-----3----|
G|------0---0---0----2---------2------2-----2-----2------------|
D|----2-------0---------------------0--------------------------|
A|--2--------------0-------------------------------------------|
E|-------------------------------------------------------------|


VERSE 1

        Em                    A                     D

e|------0------------0----------------2-----2-----2------------|
B|------0------------2-2h3p2---3------3-3-----3-----3---3------|
G|--------0---0----2---------2------2-----2-----2-----2--------|
D|----2-----0---------------------0----------------------------|
A|--2------------0---------------------------------------------|
E|-------------------------------------------------------------|


        Em                    A                     D

e|--------0-----------------------------2-----2-----2----------|
B|--------0------------2-2h3p2---3--------3-----3---3-3---3----|
G|------0---0---0----2---------2------2-----2-----2-----2------|
D|----2-------0---------------------0--------------------------|
A|--2--------------0-------------------------------------------|
E|-------------------------------------------------------------|


VERSE 2

        Em                    A                     D

e|------0-----------------------------2-----2h3-2---2----------|
B|------0------------2-2h3p2---3------3-3---3-----3------------|
G|--------0---0----2---------2------2-----2--------------------|
D|----2-----0---------------------0----------------------------|
A|--2------------0---------------------------------------------|
E|-------------------------------------------------------------|


        Em                    A                     D

e|--------0------------0----------------2-----2-----2----------|
B|--------0------------2-2h3p2---3------3-3-----3-----3---3----|
G|------0---0---0----2---------2------2-----2-----2-----2------|
D|----2-------0---------------------0--------------------------|
A|--2--------------0-------------------------------------------|
E|-------------------------------------------------------------|
Tap to rate this tab
 
# A B C D E F G H I J K L M N O P Q R S T U V W X Y Z