Song name
# A B C D E F G H I J K L M N O P Q R S T U V W X Y Z

Yuri Misumi - The Wonderful Stars Walk Is Wonderful tab

--------------------------------------------------------------------------------
              The Wonderful Stars Walk is Wonderful - Yuri Misumi 
                        (Katamari Fortissimo Damacy)
--------------------------------------------------------------------------------

Tabbed by: Mushaboom [Race Pendleton]
Email: racependleton@gmail.com

Tuning: standard

E|-----1--0-||
B|---1------||
G|-2--------||x3
D|----------||
A|----------||
E|----------||

E|-------------1-0----------------------------1-0-----------1---||
B|-----1-----3-----1---1---1----------1-----3-----1---1---1-----||
G|---2---2-3---------0---2---3--2---2---2-3---------0---2-------|| repeat...
D|-3------------------------------3-----------------------------||
A|--------------------------------------------------------------||
E|--------------------------------------------------------------||

(obligatory "this is my first tab" notification)
if you have any corrections or queries email me at
(racependleton@gmail.com)
===============================================================================
Tap to rate this tab
 
# A B C D E F G H I J K L M N O P Q R S T U V W X Y Z