Song name
# A B C D E F G H I J K L M N O P Q R S T U V W X Y Z

Yuzo Koshiro - Shenmue Rain tab

Song Name: Rain
Artist: Yuzo Koshiro
Album: Shenmue Ch. 1: Yokosuka OST

Okay, this is my first tab, i love every shenmue 
song and i thought i'd share this nice tune 
with you guys. i tried to time the spaces between every note, but i don't think 
it's perfect, listen the song for timing.

E-------15-------------15---------------------------------12----------|
B-17-15----17----15-13----15----13-12-12---12-15-13-12-10----10-------|
G---------------------------------------------------------------------|
D---------------------------------------------------------------------|
A---------------------------------------------------------------------|
E---------------------------------------------------------------------|


E-------15-------------15------------------------15-17-15-15----------|
B-17-15----17----15-13----15----13-12-12---12-13----------------------|
G---------------------------------------------------------------------|
D---------------------------------------------------------------------|
A---------------------------------------------------------------------|
E---------------------------------------------------------------------|

E----20-19-17-19--15----------------17--------15----------------------|
B--------------------15-17-17----15----17--13----15--12-12-13-13------|
G-17------------------------------------------------------------------|
D---------------------------------------------------------------------|
A---------------------------------------------------------------------|
E---------------------------------------------------------------------|


E----20-19-17-19--15----------------17--------15------15-17-----------|
B--------------------15-17-17----15----17--13----15-------------------|
G-17------------------------------------------------------------------|
D---------------------------------------------------------------------|
A---------------------------------------------------------------------|
E---------------------------------------------------------------------|


that's the song, pretty easy, huh? if you have any questions, corrections
or even better, more Shenmue tabs, please be sure to e-mail me to 
Vulcan_Raven01@hotmail.com
enjoy!
Tap to rate this tab
 
# A B C D E F G H I J K L M N O P Q R S T U V W X Y Z