Guitaretab - guitar tabs
Song name
# A B C D E F G H I J K L M N O P Q R S T U V W X Y Z

Yuzo Koshiro - Shenmue Theme tab

-------------------------------------------------------------------------------
			     Shenmue Main theme - Yuzo Koshiro
-------------------------------------------------------------------------------
Tabbed by: Brian Russell
Email: from_zero_freak@yahoo.com

Tuning: Standard


      E   E   E  E  T Q    S. E     T Q    Q.     S. E   E   
E||--11--10------8---------------|---------5------L--8--10--|
B||----------11-------8----L--6--|----8---------------------|
G||------------------------------|--------------------------|
D||------------------------------|--------------------------|
A||------------------------------|--------------------------|
E||------------------------------|--------------------------|


   E   E   S.S S. Q.     E     Q    Q.     S S. S.  E   
--11--10-------8------------|-------5------L----8--10--|
----------11------8------6--|--8-----------------------|
----------------------------|--------------------------|
----------------------------|--------------------------|
----------------------------|--------------------------|
----------------------------|--------------------------|


   E   E   E  E  Q.     E     Q    Q.     S S S. T E     H.           E.  T T  
--11--10------8------------|--6----3------L---1----3--|--1------------L---L---|
----------11-----8------6--|--------------------------|-----------------------|
---------------------------|--------------------------|-----------------------|
---------------------------|--------------------------|-----------------------|
---------------------------|--------------------------|-----------------------|
---------------------------|--------------------------|-----------------------|


  H.           E  T S.    W                   W                 
-----------------------|-------------------|-------------------|
--4------------L--L----|-------------------|-------------------|
-----------------------|-------------------|-------------------|
-----------------------|-------------------|-------------------|
-----------------------|-------------------|-------------------|
-----------------------|-------------------|-------------------|





   E   E   E  E  T Q    S. E     T Q    Q.     S. E   E   
--11--10------8---------------|---------5------L--8--10--|
----------11-------8----L--6--|----8---------------------|
------------------------------|--------------------------|
------------------------------|--------------------------|
------------------------------|--------------------------|
------------------------------|--------------------------|


   E   E   S.S S. Q.     E     Q    Q.     S S. S.  E   
--11--10-------8------------|-------5------L----8--10--|
----------11------8------6--|--8-----------------------|
----------------------------|--------------------------|
----------------------------|--------------------------|
----------------------------|--------------------------|
----------------------------|--------------------------|


   E   E   E  E  Q.     E     Q    Q.     S S S. T E     H.           E.  T T  
--11--10------8------------|--6----3------L---1----3--|--1------------L---L---|
----------11-----8------6--|--------------------------|-----------------------|
---------------------------|--------------------------|-----------------------|
---------------------------|--------------------------|-----------------------|
---------------------------|--------------------------|-----------------------|
---------------------------|--------------------------|-----------------------|


  H.           E  T S.     E   E   E  E  T Q    S. E   
-----------------------|--11--10------8---------------|
--4------------L--L----|----------11-------8----L--6--|
-----------------------|------------------------------|
-----------------------|------------------------------|
-----------------------|------------------------------|
-----------------------|------------------------------|


  T Q    Q.     S. E   E      E   E   S.S S. Q.     E   
---------5------L--8--10--|--11--10-------8------------|
----8---------------------|----------11------8------6--|
--------------------------|----------------------------|
--------------------------|----------------------------|
--------------------------|----------------------------|
--------------------------|----------------------------|


  Q    Q.     S S. S.  E      E   E   E  E  Q.     E   
-------5------L----8--10--|--11--10------8------------|
--8-----------------------|----------11-----8------6--|
--------------------------|---------------------------|
--------------------------|---------------------------|
--------------------------|---------------------------|
--------------------------|---------------------------|

[ Tab from: http://www.guitaretab.com/y/yuzo-koshiro/87881.html ]
  Q    Q.     S S S. T E     H.           E.  T T    H.           E  T S.  
--6----3------L---1----3--|--1------------L---L---|-----------------------|
--------------------------|-----------------------|--4------------L--L----|
--------------------------|-----------------------|-----------------------|
--------------------------|-----------------------|-----------------------|
--------------------------|-----------------------|-----------------------|
--------------------------|-----------------------|-----------------------|


   E   E   E  E  T Q    S. E     T Q    Q.     S. E   E   
--11--10------8---------------|---------5------L--8--10--|
----------11-------8----L--6--|----8---------------------|
------------------------------|--------------------------|
------------------------------|--------------------------|
------------------------------|--------------------------|
------------------------------|--------------------------|


   E   E   S.S S. Q.     E     Q    Q.     S S. S.  E   
--11--10-------8------------|-------5------L----8--10--|
----------11------8------6--|--8-----------------------|
----------------------------|--------------------------|
----------------------------|--------------------------|
----------------------------|--------------------------|
----------------------------|--------------------------|


   E   E   E  E  Q.     E     Q    Q.     S S S. T E     H.           E.  T T  
--11--10------8------------|--6----3------L---1----3--|--1------------L---L---|
----------11-----8------6--|--------------------------|-----------------------|
---------------------------|--------------------------|-----------------------|
---------------------------|--------------------------|-----------------------|
---------------------------|--------------------------|-----------------------|
---------------------------|--------------------------|-----------------------|


  H.           E  T S.     E   E   E  E  T Q    S. E   
-----------------------|--11--10------8---------------|
--4------------L--L----|----------11-------8----L--6--|
-----------------------|------------------------------|
-----------------------|------------------------------|
-----------------------|------------------------------|
-----------------------|------------------------------|


  T Q    Q.     S. E   E      E   E   S.S S. Q.     E   
---------5------L--8--10--|--11--10-------8------------|
----8---------------------|----------11------8------6--|
--------------------------|----------------------------|
--------------------------|----------------------------|
--------------------------|----------------------------|
--------------------------|----------------------------|


  Q    Q.     S S. S.  E      E   E   E  E  Q.     E   
-------5------L----8--10--|--11--10------8------------|
--8-----------------------|----------11-----8------6--|
--------------------------|---------------------------|
--------------------------|---------------------------|
--------------------------|---------------------------|
--------------------------|---------------------------|


  Q    Q.     S S S. T E     H.           E.  T T    H.           E  T S.  
--6----3------L---1----3--|--1------------L---L---|-----------------------|
--------------------------|-----------------------|--4------------L--L----|
--------------------------|-----------------------|-----------------------|
--------------------------|-----------------------|-----------------------|
--------------------------|-----------------------|-----------------------|
--------------------------|-----------------------|-----------------------|


   E   E   E  E  T Q    S. E     T Q    Q.     S. E   E   
--11--10------8---------------|---------5------L--8--10--|
----------11-------8----L--6--|----8---------------------|
------------------------------|--------------------------|
------------------------------|--------------------------|
------------------------------|--------------------------|
------------------------------|--------------------------|


   E   E   S.S S. Q.     E     Q    Q.     S S. S.  E   
--11--10-------8------------|-------5------L----8--10--|
----------11------8------6--|--8-----------------------|
----------------------------|--------------------------|
----------------------------|--------------------------|
----------------------------|--------------------------|
----------------------------|--------------------------|


   E   E   E  E  Q.     E     Q    Q.     S S S. T E     H.           E.  T T  
--11--10------8------------|--6----3------L---1----3--|--1------------L---L---|
----------11-----8------6--|--------------------------|-----------------------|
---------------------------|--------------------------|-----------------------|
---------------------------|--------------------------|-----------------------|
---------------------------|--------------------------|-----------------------|
---------------------------|--------------------------|-----------------------|


  H.           E  T S T   
------------------------||
--4------------L--L-----||
------------------------||
------------------------||
------------------------||
------------------------||






| /  slide up
| \  slide down
| h  hammer-on
| p  pull-off
| ~  vibrato
| +  harmonic
| x  Mute note
| L  Tied note
===============================================================================
Related for Shenmue Theme tab
Advertisement will be closed in 10 seconds