Song name
# A B C D E F G H I J K L M N O P Q R S T U V W X Y Z

Yves Chamberland - Lover tab

----------------------------------------------------------------------------
			     Lover - Yves Chamberland
----------------------------------------------------------------------------

Also known as Mary B. It's the guitar tune from the movie 'Lost and Delirious'. It plays 
the scene where Paulie and Tori are kissing on the roof.

You can hear it here: http://www.myspace.com/lostdelirious

Tuning: standard: EADGBe

e|-------------------2----------------------------------------2-------------|
B|-----0-2-4-----0-2------0-2-4-----0-4/5-4-----0-2-4-----0-2-------0-2-4---|
G|--------------------------------------------------------------------------|
D|---------------------2---------2-------------------------------2----------|
A|--2--------2------------------------------2----------2--------------------|
E|--------------------------------------------------------------------------|

e|-------------------2---------2---------2---------------------2---------2--|
B|-----0-5-4-----0-2-------0-2-------0-2-------0-4/5-4-----0-2-------0-2----|
G|--------------------------------------------------------------------------|
D|--2---------1---------1---------2---------2-----------1---------1---------|
A|--------------------------------------------------------------------------|
E|--------------------------------------------------------------------------|

e|---------2------------------2---------4-2---------2-------4-2---------2---|
B|-----0-2------0-5-4-----0-2-------0-2---------0-2-------0---------0-2-----|
G|--------------------------------------------------------------------------|
D|--2---------2------------------------------1---------1---------2----------|
A|---------------------4---------4------------------------------------------|
E|--------------------------------------------------------------------------|

e|---------2---------2-----------------2---------4-2---------2-------4-2----|
B|-----0-2-------0-2-------0-2-----0-2-------0-2---------0-2-------0--------|
G|--------------------------------------------------------------------------|
D|--2---------2---------2-----------------------------1---------1-----------|
A|------------------------------4---------4---------------------------------|
E|--------------------------------------------------------------------------|

e|---------2---------2---------2---------2----------------------------------|
B|-----0-2-------0-2-------0-2-------0-2------------------------------------|
G|--------------------------------------------------------------------------|
D|--2---------2---------2---------2-----------------------------------------|
A|------------------------------------------2-------------------------------|
E|--------------------------------------------------------------------------|


| /  slide up
| \  slide down
| h  hammer-on
| p  pull-off
| ~  vibrato
| +  harmonic
| x  Mute note
Tap to rate this tab
 
# A B C D E F G H I J K L M N O P Q R S T U V W X Y Z