Guitaretab - guitar tabs
Song name
# A B C D E F G H I J K L M N O P Q R S T U V W X Y Z

Yves Klein Blue - About The Future tab

-------------------------------------------------------------------------------
		  ABOUT THE FUTURE  Yves Klein Blue
-------------------------------------------------------------------------------
Tabbed by: angryfingers
Email: mbuxton10@hotmail.com

Tuning: Standard

e|----------------5----5----5----6----8----6----7----8-----------------------|
B|----------------6----5----6----6----10---6----7----8-----------------------|
G|----------------5----6----7----7----8----7----8----9-----------------------|
D|----------------7----7----7----8----10---8----9----10----------------------|
A|-----5---7------8----7----5----8----8----8----9----10----------------------|
E|--8-------------0----5----0----6----0----6----7----8-----------------------|

e|----------------5----5----5----6----8----6----7----8----9----10----10------|
B|----------------6----5----6----6----10---6----7----8----9----10----12------|
G|----------------5----6----7----7----8----7----8----9----10---10----10------|
D|----------------7----7----7----8----10---8----9----10---11---12----12------|
A|-----5---7------8----7----5----8----8----8----9----10---11---12----10------|
E|--8-------------0----5----0----6----0----6----7----8----9----10----0-------|
[ Tab from: http://www.guitaretab.com/y/yves-klein-blue/190559.html ]
e|------8----6----8----8-----------------------------------------------------|
B|------8----6----8----10----------------------------------------------------|
G|------9----7----9----8-----------------------------------------------------|
D|------10---8----10---10-----x2---------------------------------------------|
A|------10---8----10---8-----------------------------------------------------|
E|------8----6----8----0-----------------------------------------------------|

e|------------5----8----8----7----6----5----8----8----6----8----10----8------|
B|------------6----8----10---9----8----6----8----10---6----10---10----8------|
G|------------7----9----8----7----6----7----9----8----7----8----10----9------|
D|------------7----10---10---9----8----7----10---10---8----10---12----10-----|
A|--8--7--6---5----10---8----7----6----5----10---8----8----8----12----10-----|
E|------------0----8----0----0----0----0----8----0----6----0----10----8------|

e|------1----5----5----6-----------------------------------------------------|
B|------1----5----6----6-----------------------------------------------------|
G|------2----6----7----7-----------------------------------------------------|
D|------3----7----7----8------x2---------------------------------------------|
A|------3----7----5----8-----------------------------------------------------|
E|------1----5----0----6-----------------------------------------------------|

e|------1----5----5----6----6----8-------------------------------------------|
B|------1----5----6----8----6----8-------------------------------------------|
G|------2----6----7----6----7----9-------------------------------------------|
D|------3----7----7----8----8----10------------------------------------------|
A|------3----7----5----6----8----10------------------------------------------|
E|------1----5----0----0----6----8-------------------------------------------|


| /  slide up
| \  slide down
| h  hammer-on
| p  pull-off
| ~  vibrato
| +  harmonic
| x  Mute note
===============================================================================
Related for About The Future tab