Song name
# A B C D E F G H I J K L M N O P Q R S T U V W X Y Z

Yves Klein Blue - About The Future tab

About The Future
Yves Klein Blue

Basically, The super, super easy version.
But a great song and a great band (Y)

Sorry if it isnt great, Email me if you have any suggestions to fix it.
lozzamoulton@hotmail.com


Intro
|----------|
|----------|
|----------|
|----------|
|----5--7--|
|-8--------|

|-------------------|
|-------------------|
|-10-------7---7----|
|-10---7---7---7----|
|-8----7---5---5----|
|------5------------|
What this generation needs is a war

|----------------------|
|----------------------|
|------10--------------|
|-8----10----8----10---|
|-8----8-----8----10---|
|-6----------6----8----|
Well itís hard to choose a side when you don't know which is right

(Do the above again)
because all my friends are frustrated, boring or bored
yes they all deranged their minds without a good excuse as to why

|---------------------|
|---------------------|
|------12-------------|
|-12---12---10----10--|
|-12---10---10----10--|
|-10---------8----8---|
Lusting after yesterdays golden stars

|-----------------|
|-----------------|
|------------10---|
|-8----10----10---|
|-8----10----8----|
|-6----8----------|
ah well maybe that just never happens any more

(Repeat above tabs)
what this generation needs is a score
cause we realize we can all get along
but no ones willing to drop their arms
cause our forefathers made reforms to civil rights and moral law
now the few of them are aligned
cause its pushing us over the line
but we all really aint that far
well somehow none of that matters any more

|---------------|
|---------------|
|---------------|
|---------------|
|--8---7---6----|
|---------------|

|------------------|
|------------------|
|---7----------10--|
|---7----10----10--|
|---5----10-----8--|
|--------8---------|
and the result of all of this is we're rushing on our own

|---------------|
|---------------|
|---------------|
|---------------|
|--8---7---6----|
|---------------|

|----------------------|
|----------------------|
|---7----------10----10|
|---7----10----10----10|
|---5----10-----8----8-|
|--------8-------------|
cause we aint with the people we look like, but we aint part of the whole

|---------------------|
|---------------------|
|---10--------10------|
|---10----8---10---12-|
|---8-----8---8----12-|
|---------6--------10-|
we almost understand our world, we're resting on our laurels

|--------------------|
|--------------------|
|--------------------|
|--12--12--10---10---|
|--12--12--10---10---|
|--10--10---8----8---|
and now my heart is shattered, I can't even try even when it matters

|--------------|
|--------------|
|--------7-----|
|--3--7--7--8--|
|--3--7--5--8--|
|--1--5-----6--|
oh so please don't let me go without you, my heart never shows without you.
lately things have been so distant, and I don't know what I can do to fix it.

|-----------------|
|-----------------|
|----------7---8--|
|--3---7---7---7--|
|--3---7---5---6--|
|--1---5----------|
why don't you love me like you used to? why do I worry about the future?

|--------------------|
|--------------------|
|--------------------|
|--8---8---10---10---|
|--8---8---10---10---|
|--6---6---8----8----|
is it just that how we manage is not by love but force of habit?

(repeat)
and if only I could be a man and live down all your dreams and plans.
and smash in all of your pretty things so the only thing that you could see was me.
but what we done should be a crime, we should be locked up so we never see the light.
for in the darkness we could see how worthless all our lives must be.


|-----------------|
|-----------------|
|---------7-------|
|--3--7---7--8----|
|--3--7---5--8----|
|--1--5------6----|
if lovers like us who drift apart, then there must be something wrong with our hearts.
at least something wrong with all of us, to never care till things are lost.

(single Strum)
|-------------------------------------------------------------------|
|-------------------------------------------------------------------|
|-------------------------------------------7-----------------------|
|--3-------------------7--------------------7--------------8--------|
|--3-------------------7--------------------5--------------8--------|
|--1-------------------5-----------------------------------6--------|
why don't you love me like you used to? why do I worry about the future?
Tap to rate this tab
# A B C D E F G H I J K L M N O P Q R S T U V W X Y Z