Song name
# A B C D E F G H I J K L M N O P Q R S T U V W X Y Z

Yyrkoon - Censored Project tab

--------------------------------------------------------------|
--------------------------------------------------------------|
--------------------------------------------------------------|
--------------------------------------------------------------|
--7-----10-----7-----10-----7h8p7-6h7p6-----------------------|
----0-0----0-0---0-0----0-0-----------------------------------|

--------------------------------------------------------------|
--------------------------------------------------------------|
--------------------------------------------------------------|
---------------------10-9-8-----------------------------------|
--7-----10-----7-----8--7-6-----------------------------------|
----0-0----0-0---0-0------------------------------------------|


----------------------------------------------------------------------|
----------------------------------------------------------------------|
----------------------------------------------------------------------|
----------------------------------------------------------------------|
---2"-3"-2"---1"-2"-1"---2"-3"-2"---1"-2"-1"---2"-3"-2"---1"-2"-1"----|
-0"--------0"---------0"---------0"----------0"---------0"------------|

---------------------------------------------------------------------|
---------------------------------------------------------------------|
---------------------------------------------------------------------|
-----4---5---4--8----------------------------------------------------|
-----2---3---2--6----------------------------------------------------|
-0-0---0---0---0-----------------------------------------------------|

----------------------------------------------------------------------|
----------------------------------------------------------------------|
----------------------------------------------------------------------|
----------------------------------------------------------------------|
---2---3---2---1---2---3---2------------------------------------------|
-0---0---0---0---0---0---0--------------------------------------------|


----------------------------------------------------------------------|
----------------------------------------------------------------------|
----------------------------------------------------------------------|
---2---3---2---1---2---3---2------------------------------------------|
-0---0---0---0---0---0---0--------------------------------------------|
----------------------------------------------------------------------|
Tap to rate this tab
 
# A B C D E F G H I J K L M N O P Q R S T U V W X Y Z