Song name
# A B C D E F G H I J K L M N O P Q R S T U V W X Y Z

Zablujena Generacija - Pozitiv Vabrejsan tab

Help us improve GuitareTab! Take a short survey!
-------------------------------------------------------------------------------
                          POZITIV VABREJSN - Zablujena Generacija
-------------------------------------------------------------------------------

INTRO (uoo, pozitiv vabrejsn...): A5
e------------------------------------------------------------------|
B------------------------------------------------------------------|
G------------------------------------------------------------------|
D---------------------------------7--7--777------------------------| 2x
A--7--7-----777--55--44--22--44---5--5--555--55--44--22--44--------|
E--5--5-----555----------------------------------------------------|

VERSE: A5 - E5   2X
INTRO 2X (only with A5 and not with D5)
VERSE   2X
BRIDGE (nekej je blo u zraku...)  D5 - E5
CHORUS:  A5 - D5 - E5 - F#5 - E5    4X
INTRO 2X (second time play the part after D5's on D string)
VERSE   2X
BRIDGE
CHORUS  4X
INTERLUDE (strumming not shown - well, for the first time PM) 2X

e------------------------------------------------------------------|
B------------------------------------------------------------------|
G------------------------------------------------------------------|
D---------------------------------5----4----2---4------------------|
A--4--2--4---2--4------5---4---5-----------------------------------|
E-------------------5----------------------------------------------|

CHORUS  4X

I think that everything is OK, I'm not quite sure about interlude. There are
also riffs from Ramon (second guitar). Well, have fun and keep on rockin'!.

brane.strojansek@siol.net
Related for Pozitiv Vabrejsan tab