Song name
# A B C D E F G H I J K L M N O P Q R S T U V W X Y Z

Zac Brown Band - Free tab

-------------------------------------------------------------------------------
			     FREE - Zac Brown Band
-------------------------------------------------------------------------------
Tabbed by:Rob G
Email:robgoldsby@gmail.com
\/= pluck down
/\= pluck up

I know it's wrong but it's close...

e|---------------------------------------------------------------------------|
B|----------------------------------------------6---------6h7----------------|
G|------------------------------------------6---------6----------------------|
D|-----\/6-\/6-/\6-8------\/6-\/6-/\6-8--6h8--8---6h8---8--------------------|
A|-6h8---------------8-6h8---------------------------------------------------|
E|---------------------------------------------------------------------------|
Tap to rate this tab
# A B C D E F G H I J K L M N O P Q R S T U V W X Y Z