Guitaretab - guitar tabs
Song name
# A B C D E F G H I J K L M N O P Q R S T U V W X Y Z

Zac Brown Band - Toes tab

-------------------------------------------------------------------------------
			     Toes- The Zac Brown Band
-------------------------------------------------------------------------------
Tabbed by: Blake Bailey

Tuning: Standard

Capo 2

I suggest finger plucking/picking. If you have a classical or nylon string 
guitar it sounds alot closer to that Mexican sound like the album. I'm still
working on the chorus but these are the chords for the verse and intro for 
sure. 

-Blake

P.S I like to play by thumb on the 5th fret on the low E rather than an open
A. It would look like this 

------
--5---
--6---
--7---
--x---
--5---


but that's just from me playing John Mayer too much. Enjoy


Intro
[ Tab from: http://www.guitaretab.com/z/zac-brown-band/192820.html ]
e|---------------------------------------------------------------------------|
B|---0h5----5--5--0------(0)-------------------0h5---------0-----------------|
G|---6------6--6----------6h7---7---7----------6-----6--6---------11-----11--|
D|---7------7--7----7-----7-----7---7---7------7-----7--7-----7---11---------|
A|---0------0--0------0---0--------(0)-----0---0------------------9-----9----|
E|----------------------------------------------------------------0---0------|

e|---------------------------------------------------------------------------|
B|---0h5----5--5--0------(0)----------------------0--------------------------|
G|---6------6--6----------6h7---7---7----------6------------8-------6--------|
D|---7------7--7----7-----7-----7---7---7-----------7---11-----11---7--------|
A|---0------0--0------0---0--------(0)-----0---0--------9-----------0--------|
E|---------------------------------------------------------------------------|



| /  slide up
| \  slide down
| h  hammer-on
| p  pull-off
| ~  vibrato
| +  harmonic
| x  Mute note
===============================================================================
Related for Toes tab