Song name
# A B C D E F G H I J K L M N O P Q R S T U V W X Y Z

Zac Brown Band - Toes tab

Tabbed by:Jordan George
Email:G-force_dude_18@hotmail.com

This is my first tab and I just played this by ear so on my guitar it sounds right but I 
it is supposed to be chords... Comment if it helps!

Tuning:Standard

e|--------------------------------------------------|
B|--------------------------------------------------|
G|--------------------------------------------------|
D|--2-2-2-2--0----2-3-3-3--2--0-2-2-2-2--0---0------|
A|--------------3--------------------------3--------|
E|--------------------------------------------------|

e|--------------------------------------------------|
B|--------------------------------------------------|
G|--------------------------------------------------|
D|--2-2-2-2--0----2-3-3-3-3--2--0-2-0----0----------|
A|--------------3----------------------3---3--2-3---|
E|--------------------------------------------------|
Tap to rate this tab
# A B C D E F G H I J K L M N O P Q R S T U V W X Y Z