Song name
# A B C D E F G H I J K L M N O P Q R S T U V W X Y Z

Zac Brown Band - Toes tab

e|-------------------------------------------------------------|
B|--2-2-2-2-0-----3-3-3-2-0---2-2-2-2-0------0-0-0-0-----------|
G|------------2-------------------------2------------2-1-------|
D|----------------0--------------------------2-----------------|
A|-------------------------------------------------------------|
E|--0-------------------------0--------------------------------|

e|-------------------------------------------------------------|
B|--2-2-2-0-----3-3-3-2-0---2-----2--0-----0-------------------|
G|----------2-------------------2--------1----2----------------|
D|--------------0-------------2--------2-----------------------|
A|--0-----------------------0--------2--------0----------------|
E|-------------------------------------------------------------|
Tap to rate this tab
# A B C D E F G H I J K L M N O P Q R S T U V W X Y Z