Song name
# A B C D E F G H I J K L M N O P Q R S T U V W X Y Z

Zac Brown Band - Where The Boat Leaves From tab

Artist: Zac Brown Band

Song: Where The Boat Leaves From

Tuning: Standard

Capo: 2nd Fret

Guitar I: Repeated through the whole Intro
e:---------------------------------------|
B:---------------------------------------|
G:---------------------------------------|
D:-----------------------------------1-4-|                                   
A:--------------------0-0-0h4-7-2-2-2----|                   
E:-0-0-0h4-7-0-0-0h4-7-------------------|

Guitar II: Starts after Guitar I plays twice
e:---------------------------------------------------------------------------------------------|
B:---------------------------------------------------------------------------------------------|
G:---------------------------------------------------------------------------------------------|
D:-4-4-4p2-2-2h4-4-4p2-2-2h4-4-4p2-2-2-6-6-6p4-4-4-4h6-6-6-6-6p4-4-4p2---2-6-6-6-6-6p4-4-4p2-2-|
A:--------------------------------------------------------------------2h4-------------------4--|
E:---------------------------------------------------------------------------------------------|

Tap to rate this tab
 
# A B C D E F G H I J K L M N O P Q R S T U V W X Y Z