Zac Brown Band - Highway 20 Ride tab

Song:  Highway 20 Ride
Album: The Foundation
Artist: Zac Brown Band
Tabbed by: Bryson11

Tuning: HALF STEP DOWN!!!!!!
CAPO 4TH FRET!!!!!!!

Legend:
/ slide
b bend
br bend release
h hammer on
p pull off
v vibrato
* harmonic
x palm mute


Intro
   Am                           F            C
||--0------------3--------0-----1-------0----0-----------|
||--1-------1----------1----1---1-----1------1-----1-----|
||--2-----2----2-----2----------2---2--------0---0-------|
||-------------------------------------------------------|
||--0---------------------------3----------3-3---------3-|
||-------------------------------------------------------|

  Am                           F     C    F
|--0-------------3-------0-----1-----0----------------||
|--1--------1----------1---1---1--1--1-3--1--------1--||
|--2------2----2-----2---------2-----0----2----2------||
|-----------------------------------------------------||
|--0---------------------------3-----3----3--3---3----||
|-----------------------------------------------------||

Verse
    Am          Am             F           C
||-----------------------------1-------0---0---------|
||o--1-----1-----1-----1-------1-----1-----1-----1---|
||---2---2---2---2---2---2-----2---2-------0---0-----|
||---------------------------------------------------|
||o--0---------0-0---------0---3---------3-3-------3-|
||---------------------------------------------------|

  Am           C          C
|-----------------------------------------------||
|--1-----1-----0----0-----1--------------------o||
|--2---2---2---0--0---0---0--0---0-----------0--||
|------------------------------------------0----||
|--0-----------3----------3----2---2-2h3-2-----o||
|-----------------------------------------------||

This is pretty much all you need to know for the song, the verse and the intro are used 
the chorus.  Enjoy
Tap to rate this tab
 
# A B C D E F G H I J K L M N O P Q R S T U V W X Y Z