Song name
# A B C D E F G H I J K L M N O P Q R S T U V W X Y Z

Zac Brown Band - Highway 20 Ride tab

hey people, this is my first tab, so im only doing the intro of this amazing song.I 
2 different ways you can play this, depending on the chords you will use to play the rest of 
song.

The first version is using standard tuning, and putting a capo on the first fret.

         Version 1

e|----2-----------------5----2----------2h3---2-0----2---------2-------------|
B|---------3---------------------3----------------------3---------3----------|
G|------------2--------------------------------------------2---------2-------|
D|---------------------------------------------------------------------------|
A|---------------------------------------------------------------------------|
E|---------------------------------------------------------------------------|


e|---5---2------------2h3---2----0-------------------------------------------|
B|----------3------------------------3---------------------------------------|
G|---------------------------------------2-----------------------------------|
D|------------------------------------------0--------------------------------|
A|---------------------------------------------------------------------------|
E|---------------------------------------------------------------------------|
       The 2nd version is also in standard tuning, except with the capo on the 3rd fret

e|-----0--------3----0------0h1---0----------0-------------------------------|
B|---------1-------------1-----------3----------1----------------------------|
G|-----------0-------------------------------------0-------------------------|
D|---------------------------------------------------------------------------|
A|---------------------------------------------------------------------------|
E|---------------------------------------------------------------------------|


e|----0--------3---0----------0h1---0----------------------------------------|
B|------1--------------1----------------3---1--------------------------------|
G|--------0-------------------------------------0----------------------------|
D|---------------------------------------------------------------------------|
A|--------------------------------------------------3------------------------|
E|---------------------------------------------------------------------------|

hope this helps, enjoy!:)
************************************
Key:
 h= hammer-on
Tap to rate this tab
 
# A B C D E F G H I J K L M N O P Q R S T U V W X Y Z