Zac Brown Band - As Shes Walking Away tab

My second tab. This is how i play it and it sounds 100% right to me. let me know 
if i need to change anything. THANKS!


E--------------------------------------------------|
B--------------------------------------------------|
G--------------------------------------------------|
D--7-7-9-7---------------7-7-9-7-------------------|
A----------10-9-10---------------10-9-7------------|
e---------------------------------------10x4-------|

E--------------------------------------------------|
B--------------------------------------------------|
G--------------------------------------------------|
D-------------------7-7-9-7---------7-7-9-7-7-9-11-|
A--7-9-7-7-7-7-9-10---------10-9-10----------------|
e--------------------------------------------------|

E--------------------------------------------------|
B--------------------------------------------------|
G--------------------------------------------------|
D--12-11-11-9-9-9-11-12-11-11-9-9-------------------
A--------------------------------------------------|
e--------------------------------------------------|
Tap to rate this tab
 
# A B C D E F G H I J K L M N O P Q R S T U V W X Y Z