Song name
# A B C D E F G H I J K L M N O P Q R S T U V W X Y Z

Zac Brown Band - Toes tab

Capo on 2 (Standard Tuning)


E --------------------------------------------------------|
B -2-2-2-2-0---2-3-3-3-3-2-0-2-2-2-2-0--------------------|
G------------2-------------------------2-4-4-4-4-2-1------|
D -------------0-0-0-0-0----------------------------------|
A -0-0-0-0-------------------0-0-0-0----------------------|
E ---------------------------------------0-0-0-0----------|

E ------------------------------------------------------|
B -2-2-2-2-0---2-3-3-3-3-2-0--2-----0------2------------|
G------------2------------------2-----1-- -2------------|
D -------------0-0-0-0-0----------2-----2--2------------|
A -0-0-0-0----------------------------------------------|
E ------------------------------------------------------|
Tap to rate this tab
 
# A B C D E F G H I J K L M N O P Q R S T U V W X Y Z