Zac Brown Band - Colder Weather tab

-------------------------------------------------------------------------------
			     COLDER WEATHER INTRO - Zac Brown Band
-------------------------------------------------------------------------------
Tabbed by: Frets-On-Fire
Email: garretttimko@yahoo.com

Tuning: Standard with CAPO 1

          G G  D          G  D5 D          G G  D Dsus4 A  G
e|---------3-3--2----------3--5--2----------3-3--2-3p2---0--3-------------|
B|---------3-3--3----------3--3--3----------3-3--3-3-----2--3-------------|
G|---------0-0--2----------0--2--2----------0-0--2-2-----2--0-------------|
D|------0--0-0--0-------0--0--0--0-------0--0-0--0-0-----2--0-------------|
A|--0h2----2-2------0h2----2---------0h2----2-2----------0--2-------------|
E|---------3-3-------------3----------------3-3-------------3-------------|
Tap to rate this tab
 
# A B C D E F G H I J K L M N O P Q R S T U V W X Y Z