Song name
# A B C D E F G H I J K L M N O P Q R S T U V W X Y Z

Zac Brown Band - Toes tab

This is my first tab. It is my simplified version of Toes. It sounds good to me, 
and I know its not perfect. 

|---0-0-0-0--------0-1-1-1-1-0------0-0-0-0------------------------------| 
|--------------3-----------------3------------3-1-3-3-3-3-1-3------------|
|------------------------------------------------------------------------| 
|------------------------------------------------------------------------|
|------------------------------------------------------------------------|
|------------------------------------------------------------------------|

|---0-0-0-0--------0-1-1-1-1-0--0----------------------------------------|
|--------------3---------------3--3-1-3--1-0-1---------------------------|
|------------------------------------------------------------------------|
|------------------------------------------------------------------------|
|------------------------------------------------------------------------|
|------------------------------------------------------------------------| 
 
Tap to rate this tab
 
# A B C D E F G H I J K L M N O P Q R S T U V W X Y Z