Zac Brown Band - Where The Boat Leaves From tab

d|---------------------------------------------------------------------------|
A|---------------------------------------------------------------------------|
F|----------------------------------------------------------------0----------|
C|--------------------0-----------------0-------------------2----------------|
G|---------------2-------------------2--------------3-3-3--------------------|
D|--------3-3-3--------------3-3-3-------------------------------------------|

d|---------------------------------------------------------------------------|
A|---------------------------------------------------------------------------|
F|-------------------2-------------------------------------------------------|
C|-------0-0-0-4------------------------------0--------------------------0---|
G|---------------------------------------2-------------------------2---------|
D|-------------------------------3-3-3---------------------3-3-3-------------|

d|---------------------------------------------------------------------------|
A|---------------------------------------------------------------------------|
F|------------------0-----------------------4-4-4-2-0------------------------|
C|--------------2------------------0-0-0-4-----------------------------------|
G|------3-3-3----------------------------------------------------------------|
D|--------------------------------------------------------3-3-3--------------|

d|---------------------------------------------------------------------------|
A|---------------------------------------------------------------------------|
F|-----4-4-4-4-0-----2---------2-----2-4-4-4-4-4-2-0-0-2-0---0---0---0-------|
C|----------------0---------------0----------------------------0---2---------|
G|---------------------------------------------------------3-----------------|
D|---------------------------------------------------------------------------|

d|---------------------------------------------------------------------------|
A|---------------------------------------------------------------------------|
F|---4-4-4-4-4-2-0-0-2-0-----0-----------------------------------------------|
C|------------------------2--------------------------------------------------|
G|---------------------------------------------------------------------------|
D|---------------------------------------------------------------------------|


This is my first attempt at making a tab so if you feel anything is wrong feel free to 
leave me a message on my account and I'll see what I can do to fix it. Thanks.
Tap to rate this tab
 
# A B C D E F G H I J K L M N O P Q R S T U V W X Y Z