Zac Brown Band - Martin tab

-------------------------------------------------------------------------------
			     Martin Intro by Zac Brown Band
-------------------------------------------------------------------------------
Tabbed by: cjsmithey	
Email: cjsmithley@gmail.com

Tuning: Down 1/2 Step

eb|-----------|0--00-0----0|------------|0--00-0-------|0-0-----|---0---------|
Bb|-----------|0h202-0----0|-------44---|0h202-0-------|2-0-4---|--0----------|
Gb|-------124-|2--22-1-1--1|4--4/6---6--|2--22-1--1---1|2-1-4---|-1-----------|
Db|-----24---2|2-----2--422|4244/6----6-|2-----2-2-424-|----4---|2------------|
Ab|-----------|0-----------|2--2/4-----4|0-------------|--------|-------------|
Eb|-----------|------------|------------|--------------|--------|-------------|



************************************

| /   slide up
| h   hammer-on

************************************

Could not find a decent intro tabbed for this great song, so I figured I would 
write it out. Enjoy!
Tap to rate this tab
 
# A B C D E F G H I J K L M N O P Q R S T U V W X Y Z