Song name
# A B C D E F G H I J K L M N O P Q R S T U V W X Y Z

Zac Brown Band - Free tab

This is the intro to Free by The Zac Brown Band. This is exactly how Zac Brown
plays it with the correct tuning. This is played throughout almost the whole song.
*The Tuning is Drop Db, partial capo II: (low to high: Db-Ab-Db-Gb-Bb-Eb) *6th
string is not capoed; place your capo from underneath the neck onto the first 5
strings. This would now make your open strings Db-Bb-Eb-Ab-C-F. If there are any
questions or comments, please contact me through my e-mail address: Russ24lucky@aol.com

Capo II; first 5 strings only!
Eb|----------------------------------|---------------------------------|
Bb|----------------------------------|---------------------------------|
Gb|---------0------0---2-------------|---------0-----0---2-------------|
Db|-0h2---2----2-----------0---2---2-|-0h2---3---2-----------0---2---2-|
Ab|-----3--------3-------3-------3---|-----2-------3-------3-------3---|
Db|-0-------0--------0-------0-------|-0-------0-------0-------0-------|


Eb|---------------0-----------------0h1p0---0-----------------------------|
Bb|-------1-----------1-------1-----------3-----0h1p0-------0h1-----1-----|
Gb|-0h2-------0h2---------2-------2---------------------2-------2-------2-|
Db|-3-------3---3---3-------3-------3---------3-----------3-------3-------|
Ab|-----3---------------3-------3---------3-----------3-------3-------3---|
Db|-----------------------------------------------------------------------|


The first chord strummed which lies directly between the end of the first verse
and the beginning of the first chorus is what I think would be called F#maj7/Db/
Db. *This chord is strummed with the same tuning as what is written above along
with the capo still only on the first 5 strings!

Eb|0
Bb|1
Gb|2
Db|3
Ab|3
Db|0

Also, here is a riff which is used a lot in this song as a bit of a transition is.
*This riff is played with the same tuning as what is written above along with the
capo still only on the first 5 strings!

Eb|---------|
Bb|---------|
Gb|---------|
Db|---0-2-3-|
Ab|-3-------|
Db|---------|
Tap to rate this tab
# A B C D E F G H I J K L M N O P Q R S T U V W X Y Z