Song name
# A B C D E F G H I J K L M N O P Q R S T U V W X Y Z

Zac Brown Band - Sic Em On A Chicken tab

Zac Brown Band
Sic Em On A Chicken Guitar Solo
Standard Tuning Capo 3rd Fret
Chords are C, F, G



-----------(X3)------------------------------------------------|
-333-5-6--8-10-8----10-8-------(X3)----------------------------|
-----------------9-------9-7--5-7-5----8-7-5----5--------------|
------------------------------------7--------7-----7-5---5-----|
-------------------------------------------------------7---7-5-|
---------------------------------------------------------------|

At the end of the first section you hit the each note multiple times
listen to the track to figure out how many times.



--------------------------------------------------------------555-8-|
---(X2)-----------------------------(X2)---------------55-6-8-------|
---------7----------5-7/8-7-5--5----------5----------5--------------|
-----5h7--------5h7-----------7-------5h7--------5h7----------------|
-5h7--------5h7-------------------5h7--------5h7--------------------|
--------------------------------------------------------------------|
Tap to rate this tab
# A B C D E F G H I J K L M N O P Q R S T U V W X Y Z