Song name
# A B C D E F G H I J K L M N O P Q R S T U V W X Y Z

Zac Brown Band - Knee Deep tab

This is not my tab, therefore I do not to take any bit of credit for it.
Band: Zac Brown Band
Song: Knee Deep
Tuning: Standard
You can use a capo on the 3rd fret if you want to be in the same key as the song,
but it is not necessary.
The intro makes up the majority of the song.

Intro:
e----------3------3---------3s5-----3-----3p0-----1----------1------1-----------|
b------1------1------1------------1-----1--------1-----------------1------------|
g--0---------------------0-----0-----------------------------2------------------|
d-------------------------------------------------------------------------------|
a-------------------------------------------------------------------------------|
e----------------------------------------------------------1--------------------|

e---------1----------0----------------------------------------------------------|
b--1---------1--------------3p1-----1----------1------1-------------------------|
g-----2----------2------2---------0-----------------0------0------0-------------|
d----------------------------------------------2-----------------2--------------|
a------------------------------------------3------------------------------------|
e-------------------------------------------------------------------------------|

e----------------------------------0---------------------------------------------|
b----------0----------------------1----------------------------------------------|
g-----------------2p0------0----0------------------------------------------------|
d------0------0---------0-------0h2----------------------------------------------|
a---------------------------------3-----------0--2--3----------------------------|
e--3--------------------------------------3--------------------------------------|

e----------3------3---------3s5-----3-----3p0-----1----------1------1-----------|
b--------------1------1------------1-----1--------1-----------------1-----------|
g-------------------------0-----0-----------------------------2-----------------|
d-------------------------------------------------------------------------------|
a-------------------------------------------------------------------------------|
e----------------------------------------------------------1--------------------|

e---------1----------0----------------------------------------------------------|
b--1---------1--------------3p1-----1----------1-------------0------------------|
g-----2----------2------2---------2-----------------2-------------0-------------|
d----------------------------------------------2-------------0-------------2----|
a------------------------------------------0------------------------------------|
e---------------------------------------------------------3-------------1-------|

e--------------------------0----------------------------------------------------|
b--------------------------1----------------------------------------------------|
g--1--------------1--1---0------------------------------------------------------|
d------2------0----------2h2----------------------------------------------------|
a--------------------------3-----------0--2--3----------------------------------|
e----------3-----------------------3--------------------------------------------|
Tap to rate this tab
# A B C D E F G H I J K L M N O P Q R S T U V W X Y Z