Song name
# A B C D E F G H I J K L M N O P Q R S T U V W X Y Z

Zac Brown Band - Day That I Die tab

-----------------------------------------------------------------------------
                             DAY THAT I DIE - Zac Brown Band
-----------------------------------------------------------------------------

Tuning: standard, Capo on 4th

This is more correct than others I've seen with just chords but of course, not 100%.
There's a video on Zac Brown Bands you tube channel that shows what hes doing a little
bit: http://www.youtube.com/watch?v=Z-cw_HpzDbI

Intro:
         C              C         C         C        C
e|--0------------0----0-0-0----0-0-0-0---0-0-0-0---0-0-0-------------|
B|--1------------1----1-1-1----1-1-1-1---1-1-1-1---1-1-1-------------|
G|--0------------0----0-0-0----0-0-0-0---0-0-0-0---0-0-0-------------|
D|--0h2-0h2-0h2--3----3-3-3----3-3-3-3---3-3-3-3---3-3-3-------------|
A|--3------------3----3-2-0----0-2-2-3---0-2-2-3---3-2-0-------------|
E|--0------------0----0-0-0----0-0-0-0---0-0-0-0---0-0-0-------------|

Verse:
    C  F  C  G
e|--0--0--0--3---|
B|--1--1--1--0---|
G|--0--2--0--0---|
D|--2--3--2--0---|
A|--3--0--3--2---|
E|--0--0--0--3---|
play over from "Early mornin' in a motel room" to "We're runnin' out of it"


Bridge:
    C  F  Am G
e|--0--1--0--3---|
B|--1--1--1--0---|
G|--0--2--2--0---|
D|--2--3--2--0---|
A|--3--3--0--2---|
E|--0--1--0--3---|
Play Through "On the day that I die" to "With my guitar in my hands"

Go back to verse once they start "woah oh" and follow the same pattern for the rest of
the song.
Tap to rate this tab
# A B C D E F G H I J K L M N O P Q R S T U V W X Y Z