Song name
# A B C D E F G H I J K L M N O P Q R S T U V W X Y Z

Zac Brown Band - Uncaged tab

Uncaged
Zac Brown Band

Transcribed by: Patrick Robinson
robinson.patrick.17@gmail.com

Tuning: half-step down

        Intro
  e|-----------|-----------------------------------------|
  B|-----------|-----------------------------------------|
o G|-----------|-----------------------------------------|
o D|-----------|-----------------------------------------|
  A|-------7---|-------7-7----7-7----7-7---7-7-9-7---7---|
  E|-0---------|----/9------9------9-----9---------9-----|

 e|-----------------------------------------------|
 B|-----------------------------------------------|
 G|-----------------------------------------------| o
 D|-----------------------------------------------| o repeat until chorus
 A|----7-7---7-7--9---9/11-11--9--7--9--7----7----|
 E|--9-----9------0---0----0---0--0--0--0--9------|

      Chorus
e|---------------|
B|---------------|
G|-9-9-----------|
D|-9-9----7--9---| repeat through chorus
A|-7-7----7--9---|
E|--------5--7---|

  Bridge
"uncaaaaged"
e|---0---|
B|---5---|
G|---6---|
D|---7---|
A|---0---|
E|-------|


e|---------------------------------------|
B|---------------------------------------|
G|---------------------------------------|
D|---------------------------------------|
A|-----7-7----7-7----7-7---7-7-9-7---7---|
E|--/9------9------9-----9---------9-----|

e|-----------------------------------------------|
B|-----------------------------------------------|
G|-----------------------------------------------|
D|-----------------------------------------------|
A|----7-7---7-7--9---9/11-11--9--7--9--7----7----|
E|--9-----9------0---0----0---0--0--0--0--9------|


      Chorus
e|---------------|
B|---------------|
G|-9-9-----------|
D|-9-9----7--9---| repeat through chorus
A|-7-7----7--9---|
E|--------5--7---|

  Bridge
"uncaaaaged"
e|---0---|
B|---5---|
G|---6---|
D|---7---|
A|---0---|
E|-------|


e|---------------------------------------|
B|---------------------------------------|
G|---------------------------------------|
D|---------------------------------------|
A|-----7-7----7-7----7-7---7-7-9-7---7---|
E|--/9------9------9-----9---------9-----|

e|-----------------------------------------------|
B|-----------------------------------------------|
G|-----------------------------------------------|
D|-----------------------------------------------|
A|----7-7---7-7--9---9/11-11--9--7--9--7----7----|
E|--9-----9------0---0----0---0--0--0--0--9------|

This is where the main riff changes just a bit with the key changes from the fiddle

e|---------------------------|---------------------------------|
B|---------------------------|---------------------------------|
G|---------------------------|---------------------------------|
D|---------------------------|---------------------------------|
A|--7---7---7---7-7--9-7---7-|--7---7---9/11-11--9-7-9-7---7---|
E|----9---9---9----------9---|----9---9------------------9-----|

e|---------------------------|---------------------------------|
B|---------------------------|---------------------------------|
G|---------------------------|---------------------------------|
D|---------------------------|---------------------------------|
A|--7---7---7---7-7--9-7---7-|--7---7---9/11-11--9-7-9-7---7---|
E|----9---9---9----------9---|----9---9------------------9-----|

e|---------------------------|---------------------------------|
B|---------------------------|---------------------------------|
G|---------------------------|---------------------------------|
D|---------------------------|---------------------------------|
A|--7---7---7---7-7--9-7---7-|--7---7---9/11-11--9-7-9-7---7---|
E|----9---9---9----------9---|----9---9------------------9-----|



e|------------------------------------------------------------------------|
B|------------------------------------------------------------------------|
G|------------------------------------------------------------------------|
D|------------------------------------------------------------------------|
A|--7-----7-----7-----7-----7-----7-----7-----7-----7-----7-----7-----7---|
E|--0--9--0--9--0--9--0--9--0--9--0--9--0--9--0--9--0--9--0--9--0--9--0---|

    SOLO   hold bend and strum as you slowly release. listen closely and you'll hear.
e|-------------------------------------------------------------------------------------|
B|-----------------------------------------------------------------------------12------|
G|--11b13-13-13-13r-12-12r-11-11-9-9-9-9-------9h11-9-9--9h11-11-11/13-13---13----13---|
D|----------------------------------------9h11-----------------------------------------|
A|-------------------------------------------------------------------------------------|
E|-------------------------------------------------------------------------------------|

e|--------12--14b16-16r14--12--------------------|
B|-----12----------------------12-12-12-12-------|
G|--13-------------------------------------------|
D|-----------------------------------------------|
A|-----------------------------------------------|
E|-----------------------------------------------|


e|-------------------------------------------------------------------------------|
B|-------------12---------------12---------------12------------------------------|
G|----/9-11b13----13r11-9-11b13----13r11-9-11r13----13r11-9--11-9----9-9--11-9---|
D|----------------------------------------------------------------11-------------|
A|-------------------------------------------------------------------------------|
E|-------------------------------------------------------------------------------|
the solo isn't 100 of course, it's kind of hard to hear all of it. but I'd say this is 
85% correct

after the solo are some little fills like this
e|------------------|
B|------------------|
G|--------9h11-9----|
D|---9h11-----------|
A|------------------|
E|------------------|
and some bends on the 11th fret just like how the solo starts. a little hard to hear.

after the solo it sounds and looks like Zac is playing this.
e|------------------------|
B|------------------------|
G|------------------------|
D|--11--11h9--11--11h9----|
A|--9---9-----9---9-------|
E|------------------------|

after that is the descending scale.
e|----------------------|
B|----------------------|
G|----------------7-----|
D|----------5-7s9---9---|
A|------5-7-------------|
E|--5-7-----------------|

and in between
e|-------------------|
B|--5-5-5-5-5-5-5----|
G|--6-6-6-7-6-7-6----|
D|--7-7-7-7-7-7-7----|
A|-------------------|
E|-------------------|

then back to the descending riff
e|---------------------|--------------10-12/15-12--|
B|---------------------|------8-10/12--------------|
G|----------------7----|--7-9----------------------|
D|----------5-7s9---9--|---------------------------|
A|------5-7------------|---------------------------|
E|--5-7----------------|---------------------------|

e|----------------------|
B|----------------------|
G|----------------7-----|
D|----------5-7s9---9---|
A|------5-7-------------|
E|--5-7-----------------|


e|-------------------|
B|--5-5-5-5-5-5-5----|
G|--6-6-6-7-6-7-6----|
D|--7-7-7-7-7-7-7----|
A|-------------------|
E|-------------------|

e|---------------------|--------------10-12/15-12--|
B|---------------------|------8-10/12--------------|
G|----------------7----|--7-9----------------------|
D|----------5-7s9---9--|---------------------------|
A|------5-7------------|---------------------------|
E|--5-7----------------|---------------------------|

play in between breaks
e|-----|
B|-----|
G|-9-9-|
D|-9-9-|
A|-7-7-|
E|-----|


e|---------------|
B|---------------|
G|-9-9-----------|
D|-9-9----7--9---| repeat through chorus again
A|-7-7----7--9---|
E|--------5--7---|

back to main riff one last time
e|---------------------------------------|
B|---------------------------------------|
G|---------------------------------------|
D|---------------------------------------|
A|-----7-7----7-7----7-7---7-7-9-7---7---|
E|--/9------9------9-----9---------9-----|

e|-----------------------------------------------|
B|-----------------------------------------------|
G|-----------------------------------------------|
D|-----------------------------------------------|
A|----7-7---7-7--9---9/11-11--9--7--9--7----7----|
E|--9-----9------0---0----0---0--0--0--0--9------|

and the song ends here on the descending riff
e|---------------------|--------------10-12/15-12--|
B|---------------------|------8-10/12--------------|
G|----------------7----|--7-9----------------------|
D|----------5-7s9---9--|---------------------------|
A|------5-7------------|---------------------------|
E|--5-7----------------|---------------------------|

Everything sounds pretty close to me...I did it all by ear so it might suck a bit on 
some parts
************************************

| /   slide up
| \   slide down
| h   hammer-on
| p   pull-off
| ~   vibrato
| +   harmonic
| x   Mute note
| b   Bend
| pb  Pre-bend
| br  Bend release
| pbr Pre-bend release
| brb Bend release bend

************************************
Tap to rate this tab
# A B C D E F G H I J K L M N O P Q R S T U V W X Y Z