Song name
# A B C D E F G H I J K L M N O P Q R S T U V W X Y Z

Zac Brown Band - Chicken Fried tab

So I've read through all of the tabs for Chicken Fried on UG, and either found them
tricky to follow or sounding incorrect (to me, anyway). I had a go at transcribing a tab for
the intro from a few videos I found on youtube, and I think it sounds relatively 
accurate, though probably not a carbon copy of the way Zac plays it.


e|---------------------------3--------------------------------|
B|-1s3--1s3---------1p0---0-----0h1--1s3--3-3-3p0-------3-----|
G|-2s4--2s4--4s2p0-------0-0----0h2--2s4-----4----2-0h2---2p0-|
D|--------------------------0---------------------------------|
A|------------------------------------------------------------|
E|------------------------------------------------------------|

e|---------------------------------------|
B|-1p0---1p0---0-------1-1---------------|
G|-----0-----0-------0--0----0-0-0-0-2---|
D|---------------0h2-----------------0---|
A|----------------------------0-2-3------|
E|--------------------------3------------|

It's hard to transcribe every note, and there may well be a few filler notes missing
here and there. Hopefully this is a decent skeleton to at least learn the main notes, and
then strengthen from there. Comments welcome.
Tap to rate this tab
# A B C D E F G H I J K L M N O P Q R S T U V W X Y Z