Song name
# A B C D E F G H I J K L M N O P Q R S T U V W X Y Z

Zac Brown Band - Knee Deep tab

Tabbed By: elijahrockman

To see this played, check out this link: https://www.youtube.com/watch?v=WdgwELfMpKg

I DO NOT take credit for that video, it is the video I based my tab on.


Tuning: Standard, Capo 3

Part 1

        C                                                 F
e|------------------3--3/5---5--3-----0------1--1-1-1-1-1-1----0-------------|
B|---------------------1/3---3--1------------1-----------------------3--1----|
G|-------------------------------------------2-------------------------------|
D|--------------2------------------2---------3-------------------------------|
A|----0--2--3----------------------------------------------------------------|
E|--3------------------------------------------------------------------------|
      C
e|---------0--0-------------------------3------------------------------------|
B|---------1--1-----0h2--2--0-------0---1------------------------------------|
G|---------0--0-----------------2-------0------------------------------------|
D|---------2--2-------------------------2------------------------------------|
A|---3-----3--3-------------------------3------------------------------------|
E|---------------------------------------------------------------------------|


Transition from Part 1... Just hit the C chord a few times

Part 2

        C                                      F
e|------------------3--3/5---5--3-----0------1--1-1-1-1-1-1----0-------------|
B|---------------------1/3---3--1------------1-----------------------3--1----|
G|-------------------------------------------2-------------------------------|
D|--------------2------------------2---------3-------------------------------|
A|----0--2--3----------------------------------------------------------------|
E|--3------------------------------------------------------------------------|

           Am        Fmaj7                 C
e|----0----------------------------------0----------------------------------|
B|----1---0----0------1----0------0------1----------------------------------|
G|----2-----2---------2-------2----------0----------------------------------|
D|----2---------------3------------------2----------------------------------|
A|----0---------------0------------------3----------------------------------|
E|--------------------------------------------------------------------------|


************************************

| /   slide up
| \   slide down
| h   hammer-on


************************************
Tap to rate this tab
# A B C D E F G H I J K L M N O P Q R S T U V W X Y Z