Song name
# A B C D E F G H I J K L M N O P Q R S T U V W X Y Z

Zac Brown Band - Highway 20 Ride tab

Highway 20 Ride Intro

C: x32010
F: 133211

CAPO 3

     C                           F              C
 
e||--0--------0----3--------0----0h1-------1----0--------0------|
B||-------1-------------1--------------1-------------1----------|
G||-------------------------------------------------------------|
D||-----2-------2-----2-------2------3-------3-----2-------2----|
A||--3------3------3------3------3-------3------3------3--------|
E||-------------------------------------------------------------|

     C                           F              C
 
e||--0--------0----3--------0----0h1---0--------------|
B||-------1-------------1------------------1----1~----|
G||---------------------------------------------0~----|
D||-----2-------2-----2-------2------3-------3--------|
A||--3------3------3------3------3-------3------3~----|
E||---------------------------------------------------|
Tap to rate this tab
# A B C D E F G H I J K L M N O P Q R S T U V W X Y Z