Song name
# A B C D E F G H I J K L M N O P Q R S T U V W X Y Z

Zac Brown Band - The Muse tab

Zac Brown Band- The Muse Intro

ZBB covered this awesome Wood Brothers tune. This is the Intro (or near enough) for the
Zac Brown Version,it is considerably quicker than the wood brothers tune though.
The chord progression is the same as The Wood Brothers. No copyright infringement intended.

Tuning- 1/2 Step Down- Eb-Ab-Db-Gb-Bb-Eb

Open Aminor Chord
e|------0-----|
B|------1-----|
G|------2-----|
D|------2-----|
A|------0-----|
E|------x-----|

Lick 1- Whole Run is Based on Am chord- Repeated 2x's
e|--------------------------------------------------------------------------------------------------------|
B|--------1-0-1-0-----------------------------------------------------------------------------------------|
G|------------------2-0-2-0-------------------------------------------------------------------------------|
D|-----2-----------------------2-0-2-0-----2-0-0----------------------------------------------------------|
A|---0----------------------------------3---------0-------------------------------------------------------|
E|--------------------------------------------------------------------------------------------------------|

Lick 2- Ends on C major,
e|-------------------------------------------------------------------------------------------------0--------|
B|------1-0-1-0------------------------------------------------------------------------------------1--------|
G|---------------2-0-2-0---------------------------------------------------------------------------0--------|
D|----2-------------------2-0-2-0-----2-0-0-------------------------------------------0-2-3-2-0----2--------|
A|--0------------------------------3----------0--2--3--------------0--------0-2-3------------------3--------|
E|-------------------------------------------------------0--1--3------3-------------------------------------|
Tap to rate this tab
 
# A B C D E F G H I J K L M N O P Q R S T U V W X Y Z